Don Henley - Lilah Chords & Tabs

 

Lilah Chords & Tabs

Don Henley Chords & Tabs

Version: 1 Type: Bass Tab 0 ratings
1 star 2 stars 3 stars 4 stars 5 stars
comments

Lilah Bass Tab

Song: Lilah
Artist: Don Henley
Album: I cannot stand still
Tabbed by: Timmy Morrison (bass_bassist@hotmail.com)

Tuning: standard 5-string (GDAEB)
****************************************************

Intro:
|-----|-----|-----|-----|-----|-----|-----|-----|
|-----|-----|-----|-----|-----|-----|-----|-----|
|-----|-----|-----|-----|-----|-----|-----|-----|
|-5---|-2-3-|-5---|-2-3-|-5---|-2-3-|-5---|-2-3-|
|---3-|-----|---3-|-----|---3-|-----|---3-|-----|

Verse 1:
|-----|-----|-----|-----|-----|-----|-----|-----|
|-----|-----|-----|-----|-----|-----|-----|-----|
|---5-|-----|---5-|-----|---5-|-----|---5-|---5-|
|-5---|-2-3-|-5---|-2-3-|-5---|-2-3-|-5---|-5---|
|-----|-----|-----|-----|-----|-----|-----|-----|

Chorus:
|-------|-----|-----|-----|-------|-----|
|-------|-----|-----|-----|-------|-----|
|-------|-----|---5-|---5-|-------|-----|
|-2-3-5-|-5-3-|-5---|-5---|-2-3-5-|-5-3-|
|-------|-----|-----|-----|-------|-----|

Verse 2:
|-----|-----|-----|-----|-----|-----|-----|-----|
|-----|-----|-----|-----|-----|-----|-----|-----|
|---5-|-----|---5-|-----|---5-|-----|---5-|---5-|
|-5---|-2-3-|-5---|-2-3-|-5---|-2-3-|-5---|-5---|
|-----|-----|-----|-----|-----|-----|-----|-----|

Chorus:
|-------|-----|-----|-----|-------|-----|-----|-----|
|-------|-----|-----|-----|-------|-----|-----|-----|
|-------|-----|---5-|---5-|-------|-----|-----|---5-|
|-2-3-5-|-5-3-|-5---|-5---|-2-3-5-|-5-3-|-5---|-5---|
|-------|-----|-----|-----|-------|-----|---3-|-----|
[ Tab from: http://www.guitartabs.cc/tabs/d/don_henley/lilah_btab.html ]
Bridge:
|-----|-----|-----|-----|-----|-------|-----|-----|-------|---|-----|
|-----|-----|-----|-7---|-----|-------|-----|---7-|-7-----|---|---5-|
|-5-7-|---5-|---7-|---5-|---7-|-7-9-5-|-7---|-7---|---7---|---|-5---|
|-----|-5---|-5---|-----|-7---|-------|---5-|-----|-----5-|-3-|-----|
|-----|-----|-----|-----|-----|-------|-----|-----|-------|---|-----|

Solo:
|-----|---|-----|---|-----|
|-----|---|-----|---|-7-\-|
|---5-|---|-----|---|-----|
|-5---|---|---2-|-3-|-----|
|-----|-5-|-5---|---|-----|





Verse 3:
|---|-----|-----|-----|-----|-----|-----|-----|
|---|-----|-----|-----|-----|-----|-----|-----|
|-5-|-----|---5-|-----|---5-|-----|---5-|---5-|
|---|-2-3-|-5---|-2-3-|-5---|-2-3-|-5---|-5---|
|---|-----|-----|-----|-----|-----|-----|-----|

Chorus:
|-------|-----|-----|-----|-------|-----|-----|-----|
|-------|-----|-----|-----|-------|-----|-----|-----|
|-------|-----|---5-|---5-|-------|-----|---5-|---5-|
|-2-3-5-|-5-3-|-5---|-5---|-2-3-5-|-5-3-|-5---|-5---|
|-------|-----|-----|-----|-------|-----|-----|-----|

|---------|-----|------|------|-------|-----|-----|-----|
|---------|-----|------|------|-------|-----|-----|-----|
|---------|-----|----5-|----5-|-------|-----|---5-|-----|
|---2-3-5-|-5-3-|--5---|-5----|-2-3-5-|-5-3-|-5---|-2-3-|
|-5-------|-----|------|------|-------|-----|-----|-----|

Solo:
|-----|-----|-----|-----|-----|---|-----|---|------|
|-----|-----|-----|-----|-----|---|-----|---|------|
|---5-|-----|-----|-----|-----|---|-----|---|-10-\-|
|-5---|-2-3-|-5---|-2-3-|-5---|---|---2-|-3-|------|
|-----|-----|---3-|-----|---3-|-5-|-5---|---|------|

Outro:
|---|-----|-----|-----|-------|-----|-----|-----|-------|
|---|-----|-----|-----|-------|-----|-----|-----|-------|
|-5-|-----|---5-|-----|-------|-----|---5-|-----|-----4-|
|---|-2-3-|-5---|-2-3-|-5-----|-2-3-|-5---|-2-3-|-5-7---|
|---|-----|-----|-----|---5-3-|-----|-----|-----|-------|

|---|-----|-------|-----|-------|---|---|
|---|-----|-------|-----|-------|---|---|
|-5-|-----|-------|-----|-------|---|---|
|---|-2-3-|-5-----|-2-3-|-5-----|---|-2-|...
|---|-----|---5-3-|-----|---5-3-|-5-|---|
Comments