Don Henley - End Of The Innocence Chords & Tabs

 

End Of The Innocence Chords & Tabs

Don Henley Chords & Tabs

Version: 1 Type: Bass Tab 0 ratings
1 star 2 stars 3 stars 4 stars 5 stars
comments

End Of The Innocence Bass Tab

   
Artist: Don Henley
Song: End of the innocence
Tabbed by: Timothy Morrison
E-mail: bass_bassist@hotmail.com
Tuning: G, D, A, E, B (5-strings roxxx!!)

*****************************************

Intro:
|---|-----|-----|-----|-----|-----|---------|-----|-----|
|---|-----|-----|-----|-----|-----|---------|-----|-----|
|---|-----|-----|-----|-----|-----|---------|-----|-----|
|-4-|-4-4-|-4-4-|-4-4-|-6-6-|-6-6-|-/-10-10-|-8-8-|-4-4-|
|---|-----|-----|-----|-----|-----|---------|-----|-----|

|------|-----|-----|-----|-5-6---|-----|---------|-----|-----|-------------------|
|-5-6--|-----|-----|-----|-------|-----|---------|-----|-----|-1-h-3-6---1-h-3-6-|
|------|-----|-----|-----|-------|-----|---------|-----|-----|-------------------|
|----4-|-4-4-|-4-4-|-4-4-|-----6-|-6-6-|-/-10-10-|-8-8-|-4-4-|-------------------|
|------|-----|-----|-----|-------|-----|---------|-----|-----|-------------------|

Verse 1:
|---|-----|---|-----|---|-----|---|-----|-----|---|-----|-----|------------|---|-----|
|---|-----|---|-----|---|-----|---|-----|-----|---|-----|-----|------6-5-3-|---|-----|
|---|-----|---|-----|-4-|-4-4-|-4-|-4-4-|-----|---|-----|-----|-3-4--------|---|-----|
|-4-|-4-4-|-4-|-4-4-|---|-----|---|-----|-4-4-|-4-|-4-4-|-4-4-|------------|-6-|-6-6-|
|---|-----|---|-----|---|-----|---|-----|-----|---|-----|-----|------------|---|-----|

|-----|---|-----|-----|-----|-----|-----|-----|-----|-----|---|-----|---|---------|-----|-----|
|-----|---|-----|-----|-----|-----|-----|-----|-----|-----|---|-----|---|---------|-----|-----|
|-4-6-|---|-----|-----|-----|-3-4-|-4-4-|-4-4-|-4-4-|-----|---|-----|---|-/-10-10-|-6-6-|-8-8-|
|-----|-4-|-4-4-|-4-4-|-4-4-|-----|-----|-----|-----|-4-4-|-4-|-4-4-|-4-|---------|-----|-----|
|-----|---|-----|-----|-----|-----|-----|-----|-----|-----|---|-----|---|---------|-----|-----|

Chorus:
|-----|---|---|---|---|---|---|-------|---|---|---|---|---|---|---|---|
|-----|---|---|---|-3-|---|---|-------|-6-|---|---|---|---|-3-|---|---|
|-8-8-|---|---|-4-|---|---|---|-------|---|-8-|---|---|-4-|---|---|---|
|-----|-8-|-6-|---|---|-4-|-6-|-6-4-6-|---|---|-8-|-6-|---|---|-4-|-6-|
|-----|---|---|---|---|---|---|-------|---|---|---|---|---|---|---|---|

|-8-8-h-10-p-8------|---|-----|-----|-----|-----|---|-----|---|-----|-----|-------|---|---|
|--------------10-8-|---|-----|-----|-----|-----|---|-----|---|-----|-----|-6-----|---|---|
|-------------------|---|-6-6-|-4-4-|-4-6-|-----|---|-4-4-|---|-6-6-|-4-4-|-------|---|---|
|-------------------|-4-|-----|-----|-----|-8-8-|-6-|-----|-4-|-----|-----|---8-6-|-4-|-6-|
|-------------------|---|-----|-----|-----|-----|---|-----|---|-----|-----|-------|---|---|

Instrumental:
|---|-----|-----|-----|-----|-----|---------|-----|-----|
|---|-----|-----|-----|-----|-----|---------|-----|-----|
|---|-----|-----|-----|-----|-----|---------|-----|-----|
|-4-|-4-4-|-4-4-|-4-4-|-6-6-|-6-6-|-/-10-10-|-8-8-|-4-4-|
|---|-----|-----|-----|-----|-----|---------|-----|-----|

Verse 2:
|---|-----|---|-----|---|-----|---|-----|-----|---|-----|-----|------------|---|-----|
|---|-----|---|-----|---|-----|---|-----|-----|---|-----|-----|------6-5-3-|---|-----|
|---|-----|---|-----|-4-|-4-4-|-4-|-4-4-|-----|---|-----|-----|-3-4--------|---|-----|
|-4-|-4-4-|-4-|-4-4-|---|-----|---|-----|-4-4-|-4-|-4-4-|-4-4-|------------|-6-|-6-6-|
|---|-----|---|-----|---|-----|---|-----|-----|---|-----|-----|------------|---|-----|

|-----|---|-----|-----|-----|-----|-----|-----|-----|-----|---|-----|---|---------|-----|-----|
|-----|---|-----|-----|-----|-----|-----|-----|-----|-----|---|-----|---|---------|-----|-----|
|-4-6-|---|-----|-----|-----|-3-4-|-4-4-|-4-4-|-4-4-|-----|---|-----|---|-/-10-10-|-6-6-|-8-8-|
|-----|-4-|-4-4-|-4-4-|-4-4-|-----|-----|-----|-----|-4-4-|-4-|-4-4-|-4-|---------|-----|-----|
|-----|---|-----|-----|-----|-----|-----|-----|-----|-----|---|-----|---|---------|-----|-----|

|-8-8-h-10-p-8------|
|--------------10-8-|
|-------------------|
|-------------------|
|-------------------|
[ Tab from: http://www.guitartabs.cc/tabs/d/don_henley/end_of_the_innocence_btab.html ]
Chorus:
|-----|---|---|---|---|---|---|-8-8-h-10-p-8------|---|---|---|---|---|---|---|
|-----|---|---|---|-3-|---|---|--------------10-8-|---|---|---|---|-3-|---|---|
|-8-8-|---|---|-4-|---|---|---|-------------------|-8-|---|---|-4-|---|---|---|
|-----|-8-|-6-|---|---|-4-|-6-|-------------------|---|-8-|-6-|---|---|-4-|-6-|
|-----|---|---|---|---|---|---|-------------------|---|---|---|---|---|---|---|



|---|-----|-----|-----|-----|---|-----|---|-----|-----|-------|------------|---|-----------|
|---|-----|-----|-----|-----|---|-----|---|-----|-----|-6-----|-6-h-8-p-6--|---|-6-h-8-p-6-|
|---|-6-6-|-4-4-|-4-6-|-----|---|-4-4-|---|-6-6-|-4-4-|-------|------------|---|-----------|
|-4-|-----|-----|-----|-8-8-|-6-|-----|-4-|-----|-----|---8-6-|------------|-4-|-----------|
|---|-----|-----|-----|-----|---|-----|---|-----|-----|-------|------------|---|-----------|

Instrumental:
|---------|-----|-----|-----|-----------------|-----|-----|---------|-----|-----|
|-5-/-8-6-|-6-6-|-6-6-|-6-6-|-6-6-h-8-p-6-----|-----|-----|---------|-----|-----|
|---------|-----|-----|-----|-------------8-6-|-----|-----|-/-10-10-|-8-8-|-4-4-|
|---------|-----|-----|-----|-----------------|-6-6-|-6-6-|---------|-----|-----|
|---------|-----|-----|-----|-----------------|-----|-----|---------|-----|-----|

|-8-h-10-p-8----------|---|------------|-------|----------------|-----|-----|-----|---------|
|------------10-8-6---|-8-|-10-6-8-6---|-------|-10-6-8-6-------|-----|-----|-----|---------|
|-------------------8-|---|----------8-|-6-4-1-|----------8-6-8-|-4-4-|-3-3-|-----|---------|
|---------------------|---|------------|-------|----------------|-----|-----|-4-4-|---------|
|---------------------|---|------------|-------|----------------|-----|-----|-----|-2-2-...-|

Verse 3:
|-----|---|-----|-----|-----|-----|---|-----|-----|-----|-----|-----|-----|-----|----|-----|-6-5-3-|---|
|-----|---|-----|-----|-----|-----|---|-----|-----|-----|-----|-----|-----|-----|----|-----|-------|---|
|-----|---|-----|-----|-----|-----|-4-|-4-4-|-4-4-|-4-4-|-3-6-|-----|-----|-----|----|-4-4-|-------|---|
|-6-8-|-4-|-4-4-|-4-4-|-4-4-|-4-4-|---|-----|-----|-----|-----|-4-4-|-4-4-|-4-4-|4-4-|-----|-------|-6-|
|-----|---|-----|-----|-----|-----|---|-----|-----|-----|-----|-----|-----|-----|----|-----|-------|---|

|---|-----|-----|-----|-----|-----|-----|-----|-----|-----|---|---------|-------|-8-h-10-p-8---|
|-6-|-----|-----|-----|-----|-----|-----|-----|-----|-----|---|-------6-|-6-----|--------------|
|---|-6-6-|-4-4-|-4-4-|-8-8-|-----|-----|-4-4-|-----|-6-6-|-4-|-4-4-6---|-------|--------------|
|---|-----|-----|-----|-----|-8-8-|-6-6-|-----|-4-4-|-----|---|---------|---8-6-|------------6-|
|---|-----|-----|-----|-----|-----|-----|-----|-----|-----|---|---------|-------|--------------|

|---|-8-8-h-10-p-8------|-----|
|---|--------------10-8-|-8---|
|---|-------------------|-----|
|-4-|-------------------|---6-|
|---|-------------------|-----|

Instrumental + Outro:
|---|-----|-----|-----|-------|-----|---------|-----|-----|-8-h-10-p-8----8-|-13-h-15-p-13----13-|
|---|-----|-----|-----|-------|-----|---------|-----|-----|------------10---|--------------15----|
|---|-----|-----|-----|-6-8---|-----|-/-10-10-|-8-8-|-4-4-|-----------------|--------------------|
|-4-|-4-4-|-4-4-|-4-4-|-----6-|-6-6-|---------|-----|-----|-----------------|--------------------|
|---|-----|-----|-----|-------|-----|---------|-----|-----|-----------------|--------------------|

|------|-----|-----|-----|-----|-------|-----|-----|-13-h-15-p-13----|-8-h-10-p-8------|
|------|-----|-----|-----|-----|-------|-----|-----|--------------15-|------------10-8-|
|------|-----|-----|-----|-----|-10-10-|-8-8-|-4-4-|-----------------|-----------------|
|-4...-|-4-4-|-4-4-|-6-6-|-6-6-|-------|-----|-----|-----------------|-----------------|
|------|-----|-----|-----|-----|-------|-----|-----|-----------------|-----------------|

|---|-----|-------------------|---|-------|-----|-----|
|-6-|-6-6-|-------6-6-h-8-p-6-|---|-------|-----|-----|
|---|-----|-6-h-8-------------|---|-10-10-|-8-8-|-4-4-|
|---|-----|-------------------|-6-|-------|-----|-----|
|---|-----|-------------------|---|-------|-----|-----|

|-6-h-8-p-6-|-8-h-10-p-8------|---|-----|---|----|-------------|
|-----------|------------10-8-|---|-----|---|----|-------------|
|-----------|-----------------|---|-----|---|----|-------------|
|-----------|-----------------|-4-|-4-4-|-4-|4-4-|-6-6-h-8-p-6-|
|-----------|-----------------|---|-----|---|----|-------------|

|---|-----|-----|-8-h-10-p-8----8-h-10-p-8-|-----|-----|-----|
|---|-----|-----|------------10------------|-----|-----|-----|
|---|-----|-----|--------------------------|-----|-----|-----|
|-4-|-4-4-|-4-4-|--------------------------|-----|-----|-----|
|---|-----|-----|--------------------------|-4-4-|-4-4-|-4-4-| Fade...
Comments