Don Broco - Beautiful Morning Chords & Tabs

 

Beautiful Morning Chords & Tabs

Don Broco Chords & Tabs

Version: 3 Type: Tab 0 ratings
1 star 2 stars 3 stars 4 stars 5 stars
comments

Beautiful Morning Tab

   
Don Broco - Beautiful Morning
http://www.myspace.com/donbroco
Noo ne has tabbed this song yet, or made a cover so i decided to TRY and tab it myself. 
It may not sound exactly the same, but it still matches and fits in, so if anyone would 
like to add there correction, please do so:)

Drop D

~ = Bend the Note


Intro/Verse 1
0:00 - 0:49

E|-------------------------------------|
B|--------------13-10------------------|
G|---7--12-14-7------10-10-9-9-7-7-----|
D|--7-7-----------------------------x8-|
A|-------------------------------------|
D|-------------------------------------|

Pre-Chorus
0:49 - 0:55
'Oi! Who's coming with me?'

E|-------------------------|-------------------------|
B|-------------------------|-------------------------|
G|----1010---10---10-------|---1010---10---10--------|
D|--7-1010-7-10-7-10-------|-7-1010-7-10-7-10--------|
A|-------------------8-7-3-|------------------3-7-8--|
D|-------------------------|-------------------------|


Chorus 1
0:56 - 1:06
'It Feels like a beautiful Morning'

Note - Those are 10 and 8's, fret 10, and 8 together:)

E|----------------------------------|
B|----------------------------------|     Version 1
G|-101010-1010101010--555-55-777-77-|
D|-x-x-x--x-x-x-x-x---xxx-xx-xxx-xx-| 2x
A|-8-8-8--8-8-8-8-8---333-33-555-55-|
D|----------------------------------|

Or                                           Play which ever chorus sounds
                                             best to you,
                                             I personally think version 1
                                             sounds better:)
E|----------------------------------------------------------|
B|----------------------------------------------------------|
G|-7-1010-7-10-7-1010-7-10-5-1010-5-10-5-1010-5-10----------|  Version 2
D|-7-1010-7-10-7-1010-7-10-5-1010-5-10-5-1010-5-10----------| 2x
A|----------------------------------------------------------|
D|----------------------------------------------------------|



Verse 2
1:06 - 1:19

(Same as the intro)
[ Tab from: http://www.guitartabs.cc/tabs/d/don_broco/beautiful_morning_tab_ver_3.html ]
E|-------------------------------------|
B|--------------13-10------------------|
G|---7--12-14-7------10-10-9-9-7-7-----|
D|--7-7--------------------------------|
A|-------------------------------------|  Repreat u untill 1:19 :)
D|-------------------------------------|


Pre-Chorus
1:19 - 1:31
                           2x
E|-------------------------|-------------------------|------|
B|-------------------------|-------------------------|------| <- 2nd time
G|----1010---10---10-------|---1010---10---10--------|------|  around,
D|--7-1010-7-10-7-10-------|-7-1010-7-10-7-10--------|-057--| instead of the
A|------------------ 8-7-3-|------------------3-7-8--|-057--| 3,7 and 8 :)
D|-------------------------|-------------------------|-057--|

Chorus
1:31 - 1:56

E|----------------------------------|
B|----------------------------------|    Repeat this over and over,
G|-101010-1010101010--555-55-777-77-|    Play along with the song
D|-101010-1010101010--555-55-777-77-|    for help.
A|-8-8-8--8-8-8-8-8---333-33-555-55-|
D|----------------------------------|

verse
1:56 - 2:33

E|---------------------------------------------------------|
B|---------------------------------------------------------|
G|-1010101010101010121212121212121212777777777777777999999-|
D|-x-x-x-x-x-x-x-x-x-x-x-x-x-x-x-x-x-xxxxxxxxxxxxxxxxxxxxx-|   
A|-8-8-8-8-8-8-8-8-101010101010101010555555555555555777777-|   
D|---------------------------------------------------------|  3x 


Chorus
2:34 - 3:23

E|----------------------------------|
B|----------------------------------|    Repeat this over and over.
G|-101010-1010101010--555-55-777-77-|
D|-101010-1010101010--555-55-777-77-|
A|-8-8-8--8-8-8-8-8---333-33-555-55-|
D|----------------------------------|


Ending
3:24 - 3:42

E------------------------------|----------------------------|
B------------------------------|----------------------------|
G----1010---10---10------------|---1010---10-7-10-----------|
D--7-1010-7-10-7-10-8-7-3------|-7-1010-7-10-7-10-8~--------| Repeat
A------------------------------|----------------------------|
D------------------------------|----------------------------|
|
Comments