Domestic Problems - Beautiful Girl Chords & Tabs

 

Beautiful Girl Chords & Tabs

Domestic Problems Chords & Tabs

Version: 1 Type: Tab 0 ratings
1 star 2 stars 3 stars 4 stars 5 stars
comments

Beautiful Girl Tab

Domestic Problems - Beautiful Girl

Note: the intro is correct, but the chorus is just the chords they use on
different instruments modified for the guitar (so that it sounds cool:)

Standard tuning; capo on 4th fret:


intro + verses:
e---------2-------------2-------------0----0--------|
B------------3---------------------------1-1--------|
G-------2-------------2----3--------0------0--------|
D----0----------0-------------0------------2--------| x10
A-----------------0h2-----------0h3--------3--------|
E---------------------------------------------------|



e----5-------|			e------2------|
B----5-------|			B------3------|
G----6-------|			G------2------|
D----7-------|			D------0------|
A----7-------|			A------0------|
E----5-------|			E-------------|
"There is nothing I can do, I've been waiting for you..."


[ Tab from: http://www.guitartabs.cc/tabs/d/domestic_problems/beautiful_girl_tab.html ]
chorus:
e----3--------2--------3--------3--------|
B----0--------3--------1--------1--------|
G----0--------2--------2--------0--------|
D----0--------0--------2--------2--------| x10
A----2--------0--------0--------3--------|
E----3-----------------------------------|


*play verse again*



e----3------|			e------3------|
B----1------|			B------0------|
G----2------|			G------0------|
D----2------|			D------2------|
A----0------|			A------2------|
E-----------|			E-------------|
      "...and nothing can capture the light in your eyes..."



e---------3-------|	   e-----2------|
B---------1-------|	   B-----3------|
G---------0-------|	   G-----2------|
D---------2-------|	   D-----0------|
A---------3-------|	   A-----0------|
E-----------------|	   E------------|
..."it's hard to believe it, no matter how I try..."



*chorus*

grptertius@yahoo.com
Comments