Dolly - Je Ne Veux Pas Rester Sage Chords & Tabs

 

Je Ne Veux Pas Rester Sage Chords & Tabs

Dolly Chords & Tabs

Version: 2 Type: Bass Tab 0 ratings
1 star 2 stars 3 stars 4 stars 5 stars
comments

Je Ne Veux Pas Rester Sage Bass Tab

   
====================
>From            : Adrian PELLET
Artist          : DOLLY
Bass Performance: JE NE VEUX PAS RESTER SAGE.
Comments:       : It's  a very good song by a very good french 
band.Their music sound like Nirvana and 
other grunge band.

Listen the CD for the timing.
---
Any comments or insults :Midtown_95250@yahoo.com

Strings: E ,A ,D ,G 

  \: slide up   /: slide down


====================

|   w  w  w  w  w  w  w  w
G ----------------------------------------
D ----------------------------------------   VERSE
A --------------3--3--3-------------------
E --5--5--5--0-----------3---3--33-3333--0
>                         

|   w  w  w  w  w  w  w  w
G -----------------------------------------
D -----------------------------------------   CHORUS
A -----------------------------------------
E -1-1-1-1-1-1-1-1-1-1-3-3-3-3-3-3-3-3-3-3-


                 BRIDGE
[ Tab from: http://www.guitartabs.cc/tabs/d/dolly/je_ne_veux_pas_rester_sage_btab_ver_2.html ]
   w  w  w  w  w  w  w  w
G -------------------------------------------------------------
D -------------------------------------------------------------   
A -----------------5-5-5-5-5-5-5-5-----------------------------      X2
E -7-7-7-7-7-7-7-7-----------------0-0-0-0-0-0-3-3-3-3-3-3-3/12\

 w  w  w  w  w  w  w  w
G -------------------------------------------------------------
D -------------------------------------------------------------   
A ------------------------------------------------------------
E-7-7-7-7-7-7-7-7-5---7-7-7-7-7-7-7-7-7-5---7-7-7-7-7-7-7-7-7-5

w  w  w  w  w  w  w  w
G -------------------------------------------------------------
D -------------------------------------------------------------   
A --------------------------0-5-5------------------------------ X3
E-7-7-7-7-7-7-7-7---7-7-7-7-------5---5-5--5-5-0--------------

w  w  w  w  w  w  w  w
G -------------------------------------------------
D -------------------------------------------------
A -------------------------------------------------       X4
E--3-3-3-3-3-3-3-3-3-3-3-5-5-5-5-5-5-5-5-5-5-5-5---
Comments