Dokken - Walk Away Chords & Tabs

 

Walk Away Chords & Tabs

Dokken Chords & Tabs

Version: 1 Type: Tab 0 ratings
1 star 2 stars 3 stars 4 stars 5 stars
comments

Walk Away Tab

                                 2005
                                Dokken
                               Walk Away
                                1-22-05
                         Tabbed by Elias Karvonen

I'm only an eleven year old kid that has been wanting this tab for a long time, until
this morning I saw George Lynch's fingering on Metal Mania and tabbed it out. So here
it is!!!

                           (Repeat intro 3 Times)
E--------1--0--------------------------|-------------------------------------|
B--------------3-------3------------3--|----------3---------------3----------|
G-------------------------0---------0--|-------------0---------------0-------|
D----0-----------------------0------0--|----------------0---------------0----|
A-------------------3---------------2--|--------2---------------3------------|
E--------------------------------------|-------------------------------------|

[ Tab from: http://www.guitartabs.cc/tabs/d/dokken/walk_away_tab.html ]
             (Here's the fourth time)
E-------|--------1--0----------------------------|---------------------------|
B-------|--------------3-------3--------------3--|-----------3---------------|
G---2---|--------------------------0----------0--|--------0-------------0----|
D---0---|----0-------------------------0------0--|-----0-------------0-------|
A-------|-------------------3-----------------2--|--2-------------3----------|
E-------|----------------------------------------|---------------------------|

E-----------|--------1--0---------------------------|------------------------|
B--------3--|--------------3--------3------------3--|---------3--------------|
G------2----|---------------------------0--------0--|-----------0------------|
D-----------|----0-------------------------0-----0--|-------------0----------|
A---4-------|-------------------3----------------2--|-------2----------------|
E-----------|---------------------------------------|------------------------|

E---------------------|--------1--0----------------------------|-------------|
B-------3-------------|--------------3---------3------------3--|-------------|
G---------0--------2--|----------------------------0--------0--|-------------|
D-----------0------0--|----0--------------------------0-----0--|-------------|
A----3----------------|-------------------3-----------------2--|-------------|
E---------------------|----------------------------------------|-------------|

That is all so I know so I hope you enjoyed the only tab of Walk Away on the web.
Comments