Dokken - Kiss Of Death Chords & Tabs

 

Kiss Of Death Chords & Tabs

Dokken Chords & Tabs

Version: 1 Type: Tab 0 ratings
1 star 2 stars 3 stars 4 stars 5 stars
comments

Kiss Of Death Tab

   
E|-------------|--------|----------|-12-12b14-12b14---(12)---------|----|
B|-------------|--------|----------|----15b17-15b17---(15)---17p12-|----|
G|-------------|--------|--x-------|-------------------------------|-12h|
D|-------------|--------|--x\------|-------------------------------|----|
A|-------------|--------|---\--x\--|-------------------------------|----|
E|--0-0-0--0-0-|--------|------x\--|-------------------------------|----|

E|-------------14-15-19-17-15-20b22-----17--19--17-17--15-----------------|
B|-------15h17---------------------------------------------19p17-19p17-19-|
G|-14h16------------------------------------------------------------------|
D|------------------------------------------------------------------------|
A|------------------------------------------------------------------------|
E|------------------------------------------------------------------------|

E|--------------20p17-19p17----17-------|-------------------------------|
B|------r-19-17-------------20----20-19-|--17----17---------------------|
G|--------------------------------------|-----19----19-17-16-17~--17p16-|
D|--------------------------------------|-------------------------------|
A|--------------------------------------|-------------------------------|
E|--------------------------------------|-------------------------------|

E|-------------|--------------------------------------------------------|
B|-------17----|--16-17-------16-17-------17-16-17-16-16h17-16h17p16-17-|
G|-16h17-------|--------16-17-------16-17-------------------------------|
D|-------------|--------------------------------------------------------|
A|-------------|--------------------------------------------------------|
E|-------------|--------------------------------------------------------|

E|--------------|-------------------------------------------------------|
B|-16-17-17-16--|-17-16-17-16-17----16-17-------------------------------|
G|--------------|----------------16-------17-16-17-16-17-16-16-16-16----|
D|--------------|----------------------------------------------------17-|
A|--------------|-------------------------------------------------------|
E|--------------|-------------------------------------------------------|

E|-----------|-------------------------------------------------------|
B|-----------|-------------------------------------------------------|
G|-16-16-16--|---16--------------------------------------------------|
D|-----------|------17-16-17-16-17-16-17-14~-13h14h15h14h13h14h15h14-|
A|-----------|-------------------------------------------------------|
E|-----------|-------------------------------------------------------|

E|-15--12-------15--12-------15--|-12-------15--12h15p12-15--14h12-14-|
B|--------15-12--------15-12-----|----15-12---------------------------|
G|-------------------------------|------------------------------------|
D|-------------------------------|------------------------------------|
A|-------------------------------|------------------------------------|
E|-------------------------------|------------------------------------|
[ Tab from: http://www.guitartabs.cc/tabs/d/dokken/kiss_of_death_tab.html ]
E|----14--12------12-------|------------------|-------------------------|
B|------------15-----15p12-|------------------|-------------------------|
G|-------------------------|--14--r---(14)\---|-------------------------|
D|-------------------------|------------------|----------12----12-13-14-|
A|-------------------------|------------------|-14-12-14----14----------|
E|-------------------------|------------------|-------------------------|

E|-------------------------------------|-------------------------------|
B|-------------------------------------|-------------17-19-17-17-19-20-|
G|----------------14-16-17-17-14-16-17-|-19-16-17-19-------------------|
D|-16-17-14-16-17----------------------|-------------------------------|
A|-------------------------------------|-------------------------------|
E|-------------------------------------|-------------------------------|

E|-17-------17-19-20-20-19-17-19-19-22-20-19-20-|-20-19-17-17----------|
B|----19p17-------------------------------------|-------------20-19-20-|
G|----------------------------------------------|----------------------|
D|----------------------------------------------|----------------------|
A|----------------------------------------------|----------------------|
E|----------------------------------------------|----------------------|

E|----------------------------------------|----------------------------|
B|-19-17-20-20-19-17-15-------------------|----------------------------|
G|----------------------17-19-16-19-17-16-|-14-------17-16-14----------|
D|----------------------------------------|----17-16----------14~-(14)\|
A|----------------------------------------|----------------------------|
E|----------------------------------------|----------------------------|

E|-2p0-0-0-3-0-0-0-5p0-0-0-7p0-0-0-|-8p0-0-0-7p0-0-0-5p0-0h2-2h3p2-0-|
B|---------------------------------|---------------------------------|
G|---------------------------------|---------------------------------|
D|---------------------------------|---------------------------------|
A|---------------------------------|---------------------------------|
E|---------------------------------|---------------------------------|

E|-2p0-0-0-3p0-0-0-5p0-0-0-7p0-0-0-8p0-0-0-8/10-------------------------|
B|----------------------------------------------13p12p10----12p10-------|
G|-------------------------------------------------------12-------12p11p|
D|----------------------------------------------------------------------|
A|----------------------------------------------------------------------|
E|----------------------------------------------------------------------|

E|--------|-----------------/--15-|-14p12-------------------------------|
B|--------|-----------------------|-------15p13p12-13-13p12----------13~|
G|-9-12-9-|--11b13----------------|-------------------------14-12-11----|
D|--------|-----------------------|-------------------------------------|
A|--------|-----------------------|-------------------------------------|
E|--------|-----------------------|-------------------------------------|

E|--------------------------------------------|------------------16-19-|
B|---(13)\------------------------------------|------15-10---/17-------|
G|--------------------------------------13-16-|--/15-------------------|
D|--------------------------12-15---/14-------|------------------------|
A|--------------11-14---/13-------------------|------------------------|
E|----------/12-------------------------------|------------------------|

E|-19p16-19-19h22-|-(22)-----|
B|----------------|----------|
G|----------------|----------|
D|----------------|----------|
A|----------------|----------|
E|----------------|----------|

Notation used:
p-pull off
h-hammer on
/-slide
(22)-ghost note
b-bend
x\-pick scratch
~-vibrato
r-release
Comments