Dokken - Its Not Love Chords & Tabs

 

Its Not Love Chords & Tabs

Dokken Chords & Tabs

Version: 3 Type: Tab

Its Not Love Tab

   
Song:It's Not Love
Written By:M.Brown,D.Dokken,G.Lynch,J.Pilson
Artist:Dokken
Album:Under Lock And Key
Tuning:Half Step Down

Legend
------

h  = hammer-on
p  = pull-off
b  = bend
r  = bend release
/  = slide up/down
<5> = natural harmonic
[5] = artifical harmonic
~  = vibrato
tr = trill
This all of it solo included

Clean (pick with fingers) overdub #1 when drums kick in overdub #2 
before 2nd verse 1st ending to intro
Eb|---------------------------------------------------------------------|
Bb|*--------------------------------------------------------------------|
Gb|-----9-9-9-9-9-9-----8~--8-8-8-8-8-8\--5-5-5-5-5-5-----5~---5-5-5----|
Db|-----7-7-7-7-7-7--7--7~--7-7-7-7-7-7\--5-5-5-5-5-5--5--4~---4-4-4----|
Ab|*--------------------------------------------------------------------|
Eb|---------------------------------------------------------------------|
                                    
                2nd ending to intro Overdub #1 (depress bar before 
                striking note)

Eb|------------|----------------|---------------------------------------|
Bb|-----------*|----------------|---------------------------------------|
Gb|-5-5-5------|----------------|----------------------6h{7}b8--(8)-----|
Db|-4-4-4------|----------------|---------------------------------------|
Ab|-----------*|-----5---3---5--|-0-----(0)-----------------------------|
Eb|------------|-0h3---3---3----|---------------------------------------|

                           w/ bar    overdub #2 RHYTHM

Eb|-----------------------------------|---------------------------------|
Bb|-----------------------------------|---------------------------------|
Gb|----------6h{7}b8--(8)---<4>b2-----|-<4>------2--------5------7------|
Db|-------------------------<4>b2-----|-<4>------2--------3------4------|
Ab|-----------------------------------|----------0--0-0-0----0-0----0-0-|
Eb|-----------------------------------|---------------------------------|

                                                 let notes ring together

Eb|-----------------------------------------------------------|---------|
Bb|-----------------------------------------------------------|---------|
Gb|---------------------------2---------5------7----7---7---7-|--2------|
Db|---------------------10\---2---------3------4--5---4---5---|--2------|
Ab|-0-0-0-0-0-0-0--x-x--10\---0--0-0-0-----0-0----------------|--0--0-0-|
Eb|-----------------------------------------------------------|---------|



Eb|---------------------------------------------------------------------|
Bb|---------------------------------------------------------------------|
Gb|----5-------7-------------------2---------------0--------------------|
Db|----3-------4-------------------2-----2---------0--------------------|
Ab|-0-----0-0-----0-0-0-0-0-0-0-0--0-----2-------------3--2~------------|
Eb|-----------------------------------3--0---0--2--3-----------3--------|

   Clean (pick with fingers)

Eb|---------------------------------------------------------------------|
Bb|---------------------------------------------------------------------|
Gb|-9-9-9-9-9-9-----8~--8-8-8-8-8-8\--5-5-5-5-5-5-----5~---5-5-5-5-5-5--|
Db|-7-7-7-7-7-7--7--7~--7-7-7-7-7-7\--5-5-5-5-5-5--5--4~---4-4-4-4-4-4--|
Ab|---------------------------------------------------------------------|
Eb|---------------------------------------------------------------------|

            Clean (pick with fingers)

Eb|---------------------------------------------------------------------|
Bb|---------------------------------------------------------------------|
Gb|-------9-9-9-9-9-9-----8~--8-8-8-8-8-8\--5-5-5-5-5-5-----5~---5-5----|
Db|-------7-7-7-7-7-7--7--7~--7-7-7-7-7-7\--5-5-5-5-5-5--5--4~---4-4----|
Ab|---------------------------------------------------------------------|
Eb|---------------------------------------------------------------------|



Eb|-----------|---------------------------------------------------------|
Bb|-----------|---------------------------------------------------------|
Gb|-5-5-5-5---|--------------------2-------5-----7----------------------|
Db|-4-4-4-4---|--------------------2-------3-----4----------------------|
Ab|-----------|---------5---3---5--0-0-0-0---0-0----0-0-0-0-0-0-0-0-0-x-|
Eb|-----------|-----0h3---3---3-----------------------------------------|

                            let notes ring together
[ Tab from: http://www.guitartabs.cc/tabs/d/dokken/its_not_love_tab_ver_3.html ]
Eb|--------------------------------------|------------------------------|
Bb|--------------------------------------|------------------------------|
Gb|---------2-------5-----7----7---7---7-|-2---------5-------7----------|
Db|----10\--2-------3-----4--5---4---5---|-2---------3-------4----------|
Ab|-x--10\--0-0-0-0---0-0----------------|-0--0-0-0-----0-0-----0-0-0-0-|
Eb|--------------------------------------|------------------------------|

                                          Why Baby Why ....

Eb|-----------------------------------------|---------------------------|
Bb|-----------------------------------------|----------3----------------|
Gb|----------2---------------0--------------|----2-----2p0-2------------|
Db|----------2-----2---------0--------------|----2---------2------------|
Ab|-0-0-0-0--0-----2-------------3--2~------|----0-0-0-----0-----5---3--|
Eb|-------------3--0---0--2--3-----------3--|----------------0h3---3---3|

                                                              Prelude to solo

Eb|--------------------|-----------------------------------------|-----|
Bb|-----------3------3-|-------3-------------------------3-------|-----|
Gb|----2------2p0-0--2-|-2-----2p0-2-----------------0---2-----2-|-----|
Db|----2----------0--0-|-2---------2-----------------0---0-----2-|-0-0-|
Ab|-5--0--0-0----------|-0-0-0-----0-----5---3---5-------------0-|-----|
Eb|---------------3----|-------------0h3---3---3-----3-------3---|-----|



Eb|-------------------|---------------------|--------------------------|
Bb|-----3-------------|----------3----------|---------3--------------3-|
Gb|-----2-----------2-|----------2-----0--2-|---------2-----------2--0-|
Db|-0-0-0-0-------2-2-|--0-0-0-0-0-----0--2-|-0-0-0-0-0-0-------2-2--0-|
Ab|---------3-0-3-0-0-|------------3-0----0-|-------------3-0-3-0-0----|
Eb|-------------------|----------------3----|------------------------3-|

                Solo

Eb|-----------|-------------------------{17}b18---15-{17}b18---17-17---|
Bb|--0--------|--------------------------------------------------------|
Gb|--0--------|-9~-x-7~-x-7~-------------------------------------------|
Db|-----------|-9~---7~---7~-7-5-7-9-7~--------------------------------|
Ab|-----------|--------------------------------------------------------|
Eb|-----------|--------------------------------------------------------|

                               2 guitar harmony part

Eb|--------------------------------------------------15-17-13-17-12-17-|
Bb|-20-17----------------------------------------8-7-------------------|
Gb|-------20-19-17-19-19-17~--9~-x-7~-x-7~-9-7-9-----------------------|
Db|---------------------------9~---7~---7~-7-5-7-9-7-------------------|
Ab|--------------------------------------------------------------------|
Eb|--------------------------------------------------------------------|



Eb|----17--------------------------------------------------------------|
Bb|-15----13h12-13-12-13-12\10-----------------------------------------|
Gb|----------------------------10h12-14-17-14h12-10--9h10-12-16-12h10-9|
Db|--------------------------------------------------------------------|
Ab|--------------------------------------------------------------------|
Eb|--------------------------------------------------------------------|



Eb|------------------------------------------------|
Bb|------------------------------------------------|
Gb|------------------------------------------------|
Db|--9h10-12-17-12h10-9--9h10-12-16-12h10-9--------|
Ab|-----------------------------------------12~----|
Eb|------------------------------------------------|


LYRICS:

I told you I had to leave, I had my reasons
I said that it hurt to stay, the way that I'm feelin'

It's not love
That left you standin'
It's not love
That left you cold
It's not love
Misunderstandin'
Only a mistake
There's nothing left to take

Why, baby, why did you make me let you go
And leave you so lonely
Why, baby, why did you have to hold on
You know it's not love anymore

Gave you your last chance but you didn't believe me
You can't keep me satisfied, the way that you treat me 

It's not love
That left you standin'
It's not love
That left you cold
It's not love
Misunderstandin'
Only a mistake
There's nothing left to take

Why, baby, why did you make me let you go
And leave you so lonely
Why, baby, why, stop playing with my heart
I told you

It's not love
Telling you to be this way
It's not love
Sayin' you can never change
It's not love
When I told you
Is he putting you down
Down, down, down