Dokken - In My Dreams Chords & Tabs

 

In My Dreams Chords & Tabs

Dokken Chords & Tabs

Version: 3 Type: Tab 0 ratings
1 star 2 stars 3 stars 4 stars 5 stars
comments

In My Dreams Tab

   
                                                       repeat with
                                           1st ending  this ending
E|----------7-7---------------------------|-7--7-----|--3--3--5---|
B|----------8-8---------7-7--------5---7--|-8--8-----|--3--3--5---|
G|----------9-9---------7-7--------5---7--|-9--9-----|--4--4--6---|
D|----------9-9---------7-7--------5---7--|-9--9-----|--5--5--7---|
A|------5-7-7-7-----5-7-5-5----5-7-3---5--|-7--7-----|--5--5--7---|
E|---0h7---------5/7--------5/7-----------|----------|--3--3--5---|


      play 3x                   play 3x
E|-------------|------7-------|-------------|------3--5--5-|
B|-------------|---5--8--7--7-|-------------|---5--3--5--5-|
G|-0h2-x-x-x-x-|---5--9--7--7-|-0h2-x-x-x-x-|---5--4--6--6-|
D|-0h2-x-x-x-x-|---5--9--7--7-|-0h2-x-x-x-x-|---5--5--7--7-|
A|-0h2-x-x-x-x-|---3--7--5--5-|-0h2-x-x-x-x-|---3--5--7--7-|
E|-0---x-x-x-x-|--------------|-0---x-x-x-x-|------3--5--5-|

  
  3x with 
those endings >1st&3rd   2nd                
E|------------|-3---5-|-3--5--|------0---|
B|------------|-3---5-|-3--5--|--5---1---|
G|------------|-4---2-|-4--2--|--5---1---|
D|-9-10-9-7-9-|-5---0-|-5--0--|--5---1---|
A|-7-7--7-7-7-|-5---4-|-5--4--|--3---0---|
E|------------|-3---0-|----0--|----------|

Chorus

Em  Em   C      C   Bm    Bm  Em
In  my  dreams its still the same

Em  Em   C      C   Bm    Bm  Em
Your love is strong, It still remains

Em  Em   C      C   Bm    Bm  Em
In My Dreams you're still by me

Em  Em   C    C  Bm  Bm  Em
Just the way it used to  be


repeat all the way through and go to solo

[ Tab from: http://www.guitartabs.cc/tabs/d/dokken/in_my_dreams_tab_ver_3.html ]
solo:
         pinch 
       harmonics  
E|---------<5>----------------------------------------------|
B|------<3>-------8-----8---<8>--------8------7-------------|
G|-2^-4^---------------------------------9------8----9------|
D|-------------/9---9-9---9--------9/10---10/9----9/7-------|
A|----------------------------------------------------------|
E|----------------------------------------------------------|



E|------------------------------------------------------------|
B|---10p0-12p0-13p0-10p0-12p0-13p0-10h12--10-10p9p8-10-8h10p8-|
G|-------------------------------------------------9---------9|
D|------------------------------------------------------------|
A|------------------------------------------------------------|
E|------------------------------------------------------------|

               8x         4x            4x
E|---------(t19p12h15)-(t20p12h15)--(t19p12h15)---------------|
B|-10--12~----------------------------------------------------|
G|------------------------------------------------------------|
D|------------------------------------------------------------|
A|------------------------------------------------------------|
E|------------------------------------------------------------|

|-/20-20-20p19p17-------------------16------------|
|-----------------19h20p19-17----------20p19p17---|
|-----------------------------19-17---------------|
|-------------------------------------------------|
|-------------------------------------------------|
|-------------------------------------------------|

|-------------------------------------------------|
|----------------------------------20b--20vv------|
|-19p17--19p16h17p16---------------20b--20vv------|
|---------------------19--------------------------|
|------------------------19--19vv-----------------|
|-------------------------------------------------|

               P.H.
|-------------------------------------|
|-------------------------------------|
|-19p16--15----14b--------------------|
|-------------------------------------|
|-------------------------------------|
|-------------------------------------|


then go to beginging blah blah blah im done.
Comments