Dogwood - Trailer Full Of Tragedy Chords & Tabs

 

Trailer Full Of Tragedy Chords & Tabs

Dogwood Chords & Tabs

Version: 2 Type: Tab 0 ratings
1 star 2 stars 3 stars 4 stars 5 stars
comments

Trailer Full Of Tragedy Tab

   
--------------------------------------------------------------------------------
--------------------------------Dogwood - Trailer Full Of Tragedy---------------
--------------------------------------------------------------------------------
Album - Seismic (2003) Track 08

pm = palm mute
x  = pause
fp = fade pm 
r  = ring out
v  = 1/4 vibrato
Tabbed out by: Jillen Oldenburg

It's possible to play i think! The end of the intro could be a bit wrong. you will see.
Correctinos or whatever to: JillenBR@hotmail.com

Great Band with a great album! Please check 'em out!

Regard D-Tuning 
(I don't really think that they play with D-Tuning but i tabbed it out as they would)

Intro:(00:02-00:14)
e|-----------------------------------------------------------------------------|
B|--*----*--*----*-------------------------------------------------------------|
G|--7-*--11-12---7-*-----------------------------------------------------------|
D|--7-7--11-12---7-7--9x-99x-9x9x-7755x----------------------------------------|
A|--5-7--9--10---5-7--9x-99x-9x9x-7755x----------------------------------------|
D|----7------------7--9x-99x-9x9x-7755x----------------------------------------|

Verse 1: (00:14-00:27)
e|-----------------------------------------------------------------------------|
B|--*----*--*---*--------------------------------------------------------------|
G|--7-*-11-12--7-*-*-----------------------------------------------------------|
D|--7-7-11-12--7-7-9-(7755x)---------------------------------------------------|
A|--5-7-9--10--5-7-9-(7755x)---------------------------------------------------|
D|----7----------7-9-(7755x)---------------------------------------------------|

Chorus1: (00:27-00:38)
e|-----------------------------------------------------------------------------|
B|------*----------------------------------------------------------------------|
G|--*-*-11-*--*-*-*------------------------------------------------------------|
D|--5-7-11-9--5-7-9--(7755x)---------------------------------------------------|
A|--5-7-9--9--5-7-9--(7755x)---------------------------------------------------|
D|--5-7----9--5-7-9--(7755x)---------------------------------------------------|

Verse2 same chords as Verse 1: (00:38-00:51)

Chorus2: (00:51-01:27)
e|-----------------------------------------------------------------------------|
B|------*---------------------------------------------------*------------------|
G|--*-*-11-*--*-p-p-p-p-----p-p-p-p------p-p-fp-fp------*-*-11-*--*-*----------|
D|--5-7-11-9--5---------5-7---------7--9-----9-9-9-9x---5-7-11-9--5-7----------|
A|--5-7-9--9--5-5-5-5-5-5-7-7-7-7-7-7--9-9-9-9-9-9-9x---5-7-9--9--5-7----------|
D|--5-7----9--5-5-5-5-5-5-7-7-7-7-7-7--9-9-9-9-9-9-9x---5-7----9--5-7----------|


e|-----------------------------------------------------------------------------|
B|------------------------*----------------------------------------------------|
G|-7x-77x-7x7x-7777x--*-*-11-*--p-p-p-p-p-p---p-p---p-p---p-p-fp-fp------------|
D|-7x-77x-7x7x-7777x--5-7-11-9--------------5-----5-----5-----7-7-7------------|
A|-5x-55x-5x5x-5555x--5-7-9--9--5-5-5-5-5-5-5-5-5-5-5-5-5-7-7-7-7-7------------|
D|--------------------5-7----9--5-5-5-5-5-5-5-5-5-5-5-5-5-7-7-7-7-7------------|
[ Tab from: http://www.guitartabs.cc/tabs/d/dogwood/trailer_full_of_tragedy_tab_ver_2.html ]
Solo: (01:27-01:41)
e|-----------------------------------------------------------------------------|
B|-----------------------------------------------------------------------------|
G|-14b16r14-12-11-9-7----------------------------------------------------------|
D|--------------------9p7--------14-12-----------------------------------------|
A|-------------------------12-14-------14-12-14--------------------------------|
D|-----------------------------------------------------------------------------|

e|-----------------------------------------------------------------------------|
B|-----------------------------------------------------------------------------|
G|-11x-12v11x--11x-14x11x--11x-14v11x---14-12-11-------------------------------|
D|----------------------------------------------14-12-11-----r-----------------|
A|-----------------------------------------------------14-12-14----------------|
D|-----------------------------------------------------------------------------|

Chorus3: (01:41-02:17
e|-----------------------------------------------------------------------------|
B|------*-----------------------------------------------------*----------------|
G|--*-*-11-*--p-p---p-p---p-p---p-p----p-p---p-p-fp-fp----*-*-11-*--*-*--------|
D|--5-7-11-9------5-----5-----5-----5------7-----7-7-7x---5-7-11-9--5-7--------|
A|--5-7-9--9--5-5-5-5-5-5-5-5-5-5-5-5--7-7-7-7-7-7-7-7x---5-7-9--9--5-7--------|
D|--5-7----9--5-5-5-5-5-5-5-5-5-5-5-5--7-7-7-7-7-7-7-7x---5-7----9--5-7--------|

e|-----------------------------------------------------------------------------|
B|-----------------------*-----------------------------------------------------|
G|7x-77x-7x7x-7777x--*-*-11-*---*-*-fp-fp-fp-----------------------------------|
D|7x-77x-7x7x-7777x--5-7-11-9---5-7-7-7-7-7-7x---------------------------------|
A|5x-55x-5x5x-5555x--5-7-9--9---5-7-7-7-7-7-7x---------------------------------|
D|-------------------5-7----9---5-7-7-7-7-7-7x---------------------------------|

Bridge: (02:18-02:40)
e|--------(Trailer full of victories and tragedies your memories)--------------|
B|---------*-------------------------------------------------------------------|
G|--*-*----7----------------*-------------*-------------*----------------------|
D|--5-7----7----------------5-------------7-------------9x---------------------|
A|--5-7----5----------------5-------------7-------------9x---------------------|
D|--5-7---------------------5-------------7-------------9x---------------------|

Chorus4: (02:40-03:18)
e|-----------------------------------------------------------------------------|
B|-----*---------------------------------*-------------------------------------|
G|-*-*-11-*--*-*-7x-77x-7x7x-7777x---*-*-11-*----------------------------------|
D|-5-7-11-9--5-7-7x-77x-7x7x-7777x---5-7-11-9----------------------------------|
A|-5-7-9--9--5-7-5x-55x-5x5x-5555x---5-7-9--9----------------------------------|
D|-5-7----9--5-7---------------------5-7----9----------------------------------|


e|-----------------------------------------------------------------------------|
B|-----------------------------------------------------------------------------|
G|-----------------------------------------------------------------------------|
D|-p-p-5-p-p-5-p-p-5-p-p-5-p-p-7-p-p-7-p-p-7-p-p-7-----------------------------|
A|-5-5-5-5-5-5-5-5-5-5-5-5-7-7-7-7-7-7-7-7-7-7-7-7-----------------------------|
D|-5-5-5-5-5-5-5-5-5-5-5-5-7-7-7-7-7-7-7-7-7-7-7-7-----------------------------|


e|-----------------------------------------------------------------------------|
B|-----------------------------------------------------------------------------|
G|-------------------------------------------------*-*--r----------------------|
D|--p-p-5-p-p-5-p-p-5-p-p-5-p-p-7-p-p-7-x7x-x7-7x--p-p--7----------------------|
A|--5-5-5-5-5-5-5-5-5-5-5-5-7-7-7-7-7-7-x7x-x7-7x--5-7--7----------------------|
D|--5-5-5-5-5-5-5-5-5-5-5-5-7-7-7-7-7-7-x7x-x7-7x--5-7--7----------------------|

Whew!
===============================================================================
Comments