Dogwood - Conscience In A Cave Chords & Tabs

 

Conscience In A Cave Chords & Tabs

Dogwood Chords & Tabs

Version: 1 Type: Tab 0 ratings
1 star 2 stars 3 stars 4 stars 5 stars
comments

Conscience In A Cave Tab

Title :    Conscience In A Cave
Artist:    Dogwood
Album :    Seismic
Tabber:    Shem Reyes (badhabit@mail.com)

INTRO

e|-----------------------------------------------|
B|-----------------------------------------------|
G|--------------------44--6-6-7-6---6-7-6--------|
D|-2-2-4-6---2-2-4-6--44--6-6-7-6---6-7-6-22-----|
A|-0-0-0-0---0-0-0-0--22--4-4-5-4---4-5-4-22-----|
D|----------------------------------------22-----|

VERSE

e|-------------------------------------|
B|-------------------------------------|
G|-66-66--66-66-44--66-----66----------|
D|-66-66--66-66-44--66-22--66-22-2/4-4-|
A|-44-00--44-00-22--00-22--00-22-2/4-4-|
D|---------------------22-----22-2/4-4-|


PRECHORUS

e|-----------------------|
B|-----------------------|
G|----------------44-----|
D|-7777777777777--44-----|
A|-7777777777777--22-----|
D|-7777777777777---------|
   .............

CHORUS
[ Tab from: http://www.guitartabs.cc/tabs/d/dogwood/conscience_in_a_cave_tab.html ]
e|----------------------------------------|
B|----------------------------------------|
G|-44-6-7-6--44-6-7-6--44-4-4-2--44-2-4-2-|
D|-44-6-7-6--44-6-7-6--44-4-4-2--44-2-4-2-|
A|-00-0-0-0--00-0-0-4--22-0-2-0--00-0-0-0-|
D|----------------------------------------|

2ND Verse

e|--------------------------------------|
B|--------------------------------------|
G|-66-4-6-4--66-4-2-4--66-4-6-4--22-44--|
D|-66-4-6-4--66-4-2-4--66-4-6-4--22-44--|
A|-00-0-0-0--00-0-0-0--00-0-0-0--22-44--|
D|--------------------------------------|

INTERLUDE W/CHORUS (PATTERN VARIES)

e|--------------------------------|
B|---------5-----------5----------|
G|-----6-----------6--------------|
D|---6---6-------6---6------------|
A|-4-----------0------------------|
D|--------------------------------|

ORDER

INTRO
VERSE
PRECHORUS
CHORUS
PRECHORUS
2ND VERSE
PRECHORUS
CHORUS
INTERLUDE
INTRO
CHORUS
CHORUS (W/ Slight Rhythm Change)


Big thanks to Danny from Dogwood for actually sitting down with me and showing
me how to play this.  I know it's still not a hundred percent but 98 at the
very least :-P. Have fun with this awesome song and once again thanks to Danny.
Comments