Dogs Die In Hot Cars - I Love You Cos I Have To Chords & Tabs

 

I Love You Cos I Have To Chords & Tabs

Dogs Die In Hot Cars Chords & Tabs

Version: 1 Type: Bass Tab 0 ratings
1 star 2 stars 3 stars 4 stars 5 stars
comments

I Love You Cos I Have To Bass Tab

This song breaks down into a few sections, they are all pretty obvious. The timing is 
pretty obvious if you listen to the track

Intro:
G----------------------------------------------------------|
D----------------------------------------------------------|
A----------------------------------------------------------|
E--3/5-5-5---3/5-5-5--3/5-5-5---3/5-5-5--------------------|


Verse:
G----------------------------------------------------------|
D----------------------------------------------------------|
A-------------------2-3-5--7-7--5-7-7--5-7-7--5-7-7--------|
E--5-5--3-5-5--3-5----------------------------------3------|
[ Tab from: http://www.guitartabs.cc/tabs/d/dogs_die_in_hot_cars/i_love_you_cos_i_have_to_btab.html ]
Lead into chorus:
G----------------------------------------------------------|
D----------------------------------------------------------|
A-------------------2-3-5--7-7--5-7-7--5-7-7--5-77777777---|
E--5-5--3-5-5--3-5-----------------------------------------|


Chorus:
G----------------------------------------------------------|
D----------------------------------------------------------|
A---------------------------------------------------2------|
E=0-0-0-0-0-0-0-0-3-3-3-3-3-3-3-3-5--3-5--3-5--3-5---------|

G----------------------------------------------------------|
D----------------------------------------------------------|
A-3-3-3-3-3-3-3-3------------------------------------------|
E-----------------3-3-3-3-3-3-3-3-5--3-5--3-5--3-5---------|
Comments