Dogs Die In Hot Cars - I Love You Cause I Have To Chords & Tabs

 

I Love You Cause I Have To Chords & Tabs

Dogs Die In Hot Cars Chords & Tabs

Version: 1 Type: Bass Tab 0 ratings
1 star 2 stars 3 stars 4 stars 5 stars
comments

I Love You Cause I Have To Bass Tab

   
-------------------------------------------------------------------------------
			     I Love You 'Cause I Have To - Dogs die in hot cars
-------------------------------------------------------------------------------

Tabbed By : MinasTirith
e-mail:

Tuning: normal


Intro

G|-------------|
D|-5/7-7-7-7-7-|
A|-------------|
E|-------------|


Vers

G|------------------------------------------|
D|------------------------------------------|
A|--------------------3-5-7-7--5-7-7--5-7-7-|
E|-12\5--3-5--3--5--7-----------------------| x tutto il verso


Chorus
[ Tab from: http://www.guitartabs.cc/tabs/d/dogs_die_in_hot_cars/i_love_you_cause_i_have_to_btab.html ]
G|------------------------------------------------------------------------------------|
D|---------------------------------------------------7-7--5-7-7--5-7-7--5-7-7--5-7-9--|
A|---------------------------------------3------/10-----------------------------------| x2
E|-8-----3------5-5--3-5-5--3-5-5--3-5-7----------------------------------------------|


At 1:24

E|-7------3------5-|  (follow the rhythm, then listen the song)
D|-----------------|
A|-----------------|
E|-----------------|


| /  slide up
| \  slide down
| h  hammer-on
| p  pull-off
| ~  vibrato
| +  harmonic
| x  Mute note
Comments