Dog Fashion Disco - Scores For Porn Chords & Tabs

 

Scores For Porn Chords & Tabs

Dog Fashion Disco Chords & Tabs

Version: 1 Type: Tab 1 rating
1 star 2 stars 3 stars 4 stars 5 stars
comments

Scores For Porn Tab

Dog Fashion Disco - Scores For Porn
~~~~~~~~~~~~~~~~~~~~~~~~~~~~~~~~~~~

Tabbed by: Simon Gabler

 ~ = let ring
 / = slide up
 \ = slide down
pm = mute with palm

~~~~~~~~~~~~~~~~~~~~~~~~~~~~~~~~~~~

Comment: There are two versions of this song. I've tabbed the newer one, which can be found
         on "Commited To A Bright Future".


 8x   pm.........
E|----------------|
B|----------------|
G|----------------| 
D|-5-7------------|
A|-5-7--050705070-|
D|-5-7--050705070-|

  
 2x
E|---------------------------------------------------------------|
B|---------------------------------------------------------------|
G|---------------------------------------------------------------|
D|-------------------------------3-3-3-3-3-3-3-3-4-4-4-4---------|
A|-5-5-5-5-5-5-5-6-6-6-6-3-3-3-3-------------------------6-6-6-6-|
D|---------------------------------------------------------------|


 3x         1x      1x          1x
E|----------|-------|-----------|--------|
B|----------|-------|"And-fuck--|--------|
G|----------|-------|-to-a------|--------|
D|-0-3-5--7-|-0-5-0-|-different-|-0-5-0-5|
A|-0-3-5--7-|-0-5-0-|-tune"-----|-0-5-0-5|
D|-0-3-5--7-|-0-5-0-|-----------|-0-5-0-5|


 2x
E|---------------------------------------------------------------|
B|---------------------------------------------------------------|
G|---------------------------------------------------------------|
D|-------------------------------3-3-3-3-3-3-3-3-4-4-4-4---------|
A|-5-5-5-5-5-5-5-6-6-6-6-3-3-3-3-------------------------6-6-6-6-|
D|---------------------------------------------------------------|


 2x                                             pm . . . . . . . .
E|-----------------------------------------------------------------|
B|-----------------------------------------------------------------|
G|-------------------------------------------------7-7-7-7-7-7-7-7-|
D|-------------------------------------------------7-7-7-7-7-7-7-7-|
A|-5-5-5-6-5-4-5---5-5-5-6-5-4-5---5-5-5-6-5-4-5---5-5-5-5-5-5-5-5-|
D|-----------------------------------------------------------------|

[ Tab from: http://www.guitartabs.cc/tabs/d/dog_fashion_disco/scores_for_porn_tab.html ]
 3x         1x        3x          2x
E|----------|---------|----------|--------|
B|----------|---------|----------|--------|
G|----------|---------|----------|--------|
D|-0-3-5--7-|-0-5-0-5-|-0-3-5--7-|-0-5-0-5|
A|-0-3-5--7-|-0-5-0-5-|-0-3-5--7-|-0-5-0-5|
D|-0-3-5--7-|-0-5-0-5-|-0-3-5--7-|-0-5-0-5|


 2x                       2x
E|-------------3333--3333-|-----------------|
B|-3333--3333-------------|-3~---6-5~--5-3~-|
G|------------------------|-2~---5-5~--4-4~-|
D|------------------------|-0~---3-----2----|
A|------------------------|-----------------|
D|------------------------|-----------------|


  1x
E|--------------------------------|
B|-3-3-3-3--6-5--5-3--------------|
G|-2-2-2-2--5-5--4-4-----7------7-|
D|-0-0-0-0--3----2-----5---7--5---|
A|--------------------------------|
D|--------------------------------|


  1x
E|----------------------------------|
B|-3-3-3-3--6-5--5-3----------------|
G|-2-2-2-2--5-5--4-4-----7------7---|
D|-0-0-0-0--3----2-----5---7--5---7-|
A|----------------------------------|
D|----------------------------------|


  1x
E|--------------------------------------------------|
B|-3-3-3-3--6-5--5----------------------------------|
G|-2-2-2-2--5-5--4----------5h7-----5-------5-------|
D|-0-0-0-0--3----2------5h7-----7-----7-5-7---7-5---|
A|------------------5h7---------------------------5-|
D|--------------------------------------------------|


  1x
E|------------------------------------------------|
B|-3-3-3-3--6-5--5--------------------------------|
G|-2-2-2-2--5-5--4----------5h7-----5-------5-----|
D|-0-0-0-0--3----2------5h7-----7-----7-5-7---7-5-|
A|------------------5h7---------------------------|
D|------------------------------------------------|


  1x
E|----------------------|
B|----------------------|
G|-3-3-3-3-5-5--7-5-3-2-|
D|-3-3-3-3-5-5--7-5-3-2-|
A|-1-1-1-1-3-3--5-3-1-0-|
D|----------------------|


 3x         1x        3x          2x
E|----------|---------|----------|--------|
B|----------|---------|----------|--------|
G|----------|---------|----------|--------|
D|-0-3-5--7-|-0-5-0-5-|-0-3-5--7-|-0-5-0-5|
A|-0-3-5--7-|-0-5-0-5-|-0-3-5--7-|-0-5-0-5|
D|-0-3-5--7-|-0-5-0-5-|-0-3-5--7-|-0-5-0-5|
Comments