Dog Fashion Disco - Corpse Is A Corpse Chords & Tabs

 

Corpse Is A Corpse Chords & Tabs

Dog Fashion Disco Chords & Tabs

Version: 1 Type: Tab 0 ratings
1 star 2 stars 3 stars 4 stars 5 stars
comments

Corpse Is A Corpse Tab

   
I'm not sure 'cos this is new to me, but this sounds pretty close.
Let these ring and strum, you'll get the rhythm with the song.

E---------
B---------
G-7-7-7-8-
D-6-6-6-6-
A-5-5-6-6-
D-0-0-0-0-
Then palm mute the first riff.
E-----------------------------------------------------------------------
B-----------------------------------------------------------------------
G-----------------------------------------------------------------------
D-----------------------------------------------------------------------
A-0-2-3-0-2-3-0-2-3-0-2-3-6-6-0-2-3-3-0-2-3-0-2-3-6-6---6-5-3-2-5-3-2-3-
D-0-2-3-0-2-3-0-2-3-0-2-3-6-6-0-2-3-3-0-2-3-0-2-3-6-6---6-5-3-2-5-3-2-3-
Next riff.
E--------------------------
B--------------------------
G--------------------------
D--------------------------
A-3-3-2-2-0-0--0-0-3-5-6-5-
D-3-3-2-2-0-0--0-0-3-5-6-5-
[ Tab from: http://www.guitartabs.cc/tabs/d/dog_fashion_disco/corpse_is_a_corpse_tab.html ]
E---------------------------------------------------------
B---------------------------------------------------------
G---------------------------------------------------------
D---------------------------------------------------------
A-3-3-3-3-2-2-0-0-0-0-3-5-6-5-3-3-3-3-2-2-0-0-0-0-3-5-6-5-
D-3-3-3-3-2-2-0-0-0-0-3-5-6-5-3-3-3-3-2-2-0-0-0-0-3-5-6-5-

E-------------------------------------
B-------------------------------------
G-------------------------------------
D-------------------------------------
A-3-0-3-0-3-3-2-2-0-0-0-0-3-5-6-5-6-2-
D-3-0-3-0-3-3-2-2-0-0-0-0-3-5-6-5-6-2-
Then.
E-------------------------------------
B-------------------------------------
G-------------------------------------
D-------------------------------------
A-3-0-2-0-3-0-2-0-3-0-2-0-3-5-0---6-2-
D-3-0-2-0-3-0-2-0-3-0-2-0-3-5-0---6-2-
Next.
E-----------
B-----------
G-----------
D---------7-
A-3-0-2-0-7-
D-3-0-2-0-0-
Then.
E--------------
B--------------
G--------------
D-6/-----------
A-6/-0-1-3-4-3-
D-6/-0-1-3-4-3-
I hope that helped to at least give an idea of the song. Thanks.
Comments