Dog Fashion Disco - Baby Satan Chords & Tabs

 

Baby Satan Chords & Tabs

Dog Fashion Disco Chords & Tabs

Version: 1 Type: Tab 1 rating
1 star 2 stars 3 stars 4 stars 5 stars
comments

Baby Satan Tab

Dog Fashion Disco - Baby Satan
~~~~~~~~~~~~~~~~~~~~~~~~~~~~~~

Tabbed by: Simon Gabler


Tuning: Dropped D


pm... = mute with palm
    \ = slide down
   
~~~~~~~~~~~~~~~~~~~~~~~~~~~~~~


 3x pm. . . .                  1x pm. . . .               4x pm. . . .
E|-----------------------------|--------------------------|-----------------------------|
B|-----------------------------|--------------------------|-----------------------------|
G|-7---------------------------|-7------------------------|-7---------------------------|
D|-7--0-0-0-0-6-5-0-3-5-0-1--3-|-7--0-0-0-0-6-5-0-3-5-0-1-|-7--0-0-0-0-6-5-0-3-5-0-1--3-|
A|-5--0-0-0-0-6-5-0-3-5-0-1--3-|-5--0-0-0-0-6-5-0-3-5-0-1-|-5--0-0-0-0-6-5-0-3-5-0-1--3-|
D|----0-0-0-0-6-5-0-3-5-0-1--3-|----0-0-0-0-6-5-0-3-5-0-1-|----0-0-0-0-6-5-0-3-5-0-1--3-|



E|-------------------------------------------------------------------------|
B|-9-8---------------9-8---------------9-6---------------9-8---------------|
G|-8-7---------------8-7---------------8-5---------------8-7---------------|
D|-7-6---------------7-6---------------7-4---------------7-6---------------|
A|-6-5-565056505650--6-5-565056505650--6-3-343634363436--6-5-565056505650--|
D|-------------------------------------------------------------------------|


    pm..                                          pm..
E|---------------------------------------------|---------------------------------------------|
B|---------------------------------------------|---------------------------------------------|
G|-7-----7-7----------------5-5-5-5--8-8-8-8-8-|-7-----7-7-----------------------------------|
D|-7--00-7-7--6-5-0-3-5-0-1-5-5-5-5--8-8-8-8-8-|-7--00-7-7--6-5-0-3-5-0-1-3-3-3-3--6-6-6-6-6-|
A|-5--00-5-5--6-5-0-3-5-0-1-3-3-3-3--6-6-6-6-6-|-5--00-5-5--6-5-0-3-5-0-1-3-3-3-3--6-6-6-6-6-|
D|----00------6-5-0-3-5-0-1--------------------|----00------6-5-0-3-5-0-1-3-3-3-3--6-6-6-6-6-|


    pm..                                          pm..
E|---------------------------------------------|------------------------------------------------|
B|---------------------------------------------|------------------------------------------------|
G|-7-----7-7----------------5-5-5-5--8-8-8-8-8-|-7-----7-7--------------------------------------|
D|-7--00-7-7--6-5-0-3-5-0-1-5-5-5-5--8-8-8-8-8-|-7--00-7-7--6-5-0-3-5-0-1-3-3-3-3--6-6-6-6-6--0-|
A|-5--00-5-5--6-5-0-3-5-0-1-3-3-3-3--6-6-6-6-6-|-5--00-5-5--6-5-0-3-5-0-1-3-3-3-3--6-6-6-6-6--0-|
D|----00------6-5-0-3-5-0-1--------------------|----00------6-5-0-3-5-0-1-3-3-3-3--6-6-6-6-6--0-|


[ Tab from: http://www.guitartabs.cc/tabs/d/dog_fashion_disco/baby_satan_tab.html ]
E|-------------------------------------------------------------------------|
B|-9-8---------------9-8---------------9-6---------------9-8---------------|
G|-8-7---------------8-7---------------8-5---------------8-7---------------|
D|-6-5---------------6-5---------------6-3---------------6-5---------------|
A|-6-5-565056505650--6-5-565056505650--6-3-343634363436--6-5-565056505650--|
D|-------------------------------------------------------------------------|


    pm..                                          pm..
E|---------------------------------------------|---------------------------------------------|
B|---------------------------------------------|---------------------------------------------|
G|-7-----7-7----------------5-5-5-5--8-8-8-8-8-|-7-----7-7-----------------------------------|
D|-7--00-7-7--6-5-0-3-5-0-1-5-5-5-5--8-8-8-8-8-|-7--00-7-7--6-5-0-3-5-0-1-3-3-3-3--6-6-6-6-6-| repeat
A|-5--00-5-5--6-5-0-3-5-0-1-3-3-3-3--6-6-6-6-6-|-5--00-5-5--6-5-0-3-5-0-1-3-3-3-3--6-6-6-6-6-|   2x
D|----00------6-5-0-3-5-0-1--------------------|----00------6-5-0-3-5-0-1-3-3-3-3--6-6-6-6-6-|


 8x          4x          4x          4x          4x
E|-----------|-----------|-----------|-----------|-----------|
B|-----------|-----------|-----------|-----------|-----------|
G|-9-10-8-10-|-----------|-9-10-8-10-|-----------|-9-10-8-10-|
D|-8-9--7-9--|-2223-1113-|-8-9--7-9--|-2223-1113-|-8-9--7-9--|
A|-7-8--6-8--|-2223-1113-|-7-8--6-8--|-2223-1113-|-7-8--6-8--|
D|-----------|-2223-1113-|-----------|-2223-1113-|-----------|


                                           pm. . . . . . .
E|-----------------------------|---------------------------|
B|-----------------------------|---------------------------|
G|-----------------------------|---------------------------|
D|-7-7-7-7-8-8-10-10--10-11-12-|-7-7-7-8-8---5-0-5-0-5-0-0-|
A|-7-7-7-7-8-8-10-10--10-11-12-|-7-7-7-8-8---5-0-5-0-5-0-0-|
D|-7-7-7-7-8-8-10-10--10-11-12-|-7-7-7-8-8---5-0-5-0-5-0-0-|


    pm..                                          pm..
E|---------------------------------------------|---------------------------------------------|
B|---------------------------------------------|---------------------------------------------|
G|-7-----7-7----------------5-5-5-5--8-8-8-8-8-|-7-----7-7-----------------------------------|
D|-7--00-7-7--6-5-0-3-5-0-1-5-5-5-5--8-8-8-8-8-|-7--00-7-7--6-5-0-3-5-0-1-3-3-3-3--6-6-6-6-6-| repeat
A|-5--00-5-5--6-5-0-3-5-0-1-3-3-3-3--6-6-6-6-6-|-5--00-5-5--6-5-0-3-5-0-1-3-3-3-3--6-6-6-6-6-|   2x
D|----00------6-5-0-3-5-0-1--------------------|----00------6-5-0-3-5-0-1-3-3-3-3--6-6-6-6-6-|


 4x pm..
E|--------------------------|----|
B|--------------------------|----|
G|-7-----7-7----------------|-7\-|
D|-7--00-7-7--6-5-0-3-5-0-1-|-7\-|
A|-5--00-5-5--6-5-0-3-5-0-1-|-5\-|
D|----00------6-5-0-3-5-0-1-|----|
Comments