Dog Eat Dog - Strip Song Chords & Tabs

 

Strip Song Chords & Tabs

Dog Eat Dog Chords & Tabs

Version: 1 Type: Tab 0 ratings
1 star 2 stars 3 stars 4 stars 5 stars
comments

Strip Song Tab

dog eat dog, strip song.
Tabbed by Mark Bouwman, mark@bouwman1.tmfweb.nl.
  
Artist : Dog eat Dog
Title  : strip song
album  : *"All Boro Kings"*

Tabed by : Mark Bouwman (mark@bouwman1.tmfweb.nl)

intro:

e|----------------------------------------------------
B|----------------------------------------------------
G|----------------------------------------------------
D|-4-4--4-4--4-4--4-4--7-10--4-4--4-4--4-7--7-7-7-6-5-
A|-4-4--4-4--4-4--4-4--7-10--4-4--4-4--4-7--7-7-7-6-5-
E|-2-2--2-2--2-2--2-2--5--9--2-2--2-2--2-5--5-5-5-4-3-

verse:
chords with * are palm-muted
[ Tab from: http://www.guitartabs.cc/tabs/d/dog_eat_dog/strip_song_tab.html ]
e|------------------------------------------------------
B|------------------------------------------------------
G|------------------------------------------------------
D|-4-4-4-4--4-4--4-4--4-7-10--4-4-4-4-4--4-7--7-7-7-6-5-
A|-4-4-4-4--4-4--4-4--4-7-10--4-4-4-4-4--4-7--7-7-7-6-5-
E|-2-2-2-2--2-2--2-2--2-5--9--2-2-2-2-2--2-5--5-5-5-4-3-
   * * * *    *	      *       * * * *	 *    * * *

chorus:
chords with * are palm-muted

e|--------------------------------------------------------
B|--------------------------------------------------------
G|--------------------------------------------------------
D|-9-8-9-12--9-8-9-8-9-8-3--9-8-9-12--9-8-9-3-3-4-5-------
A|-9-8-9-12--9-8-9-8-9-8-3--9-8-9-12--9-8-9-3-3-4-5-------
E|-7-7-7-10--7-6-7-6-7-6-1--7-7-7-10--7-6-7-1-1-2-3-------
                                            * *  
fill:
chords with * are palm-muted

e|------------
B|------------
G|------------
D|-4-4-4-4--4-
A|-4-4-4-4--4-
E|-2-2-2-2--2-
   * * * *    

STRUCTURE:

intro  2x
verse  4x
verse  4x
chorus 2x
verse  6x
chorus 2x
verse  4x slow
fill   1x
verse  2x slow
fill   1x

that's it!
good luck

PS. mail me if you have any corrections! 
:: Ultimate Guitar Archive :: 
http://www.ultimate-guitar.com
Comments