Doemaar - Tijd Genoeg Chords & Tabs

 

Tijd Genoeg Chords & Tabs

Doemaar Chords & Tabs

Version: 1 Type: Bass Tab 0 ratings
1 star 2 stars 3 stars 4 stars 5 stars
comments

Tijd Genoeg Bass Tab

Doe maar - Tijd genoeg (bass)

                         2x
G |-----------14----14------|-----------9---9--------------------
D |--------14----14----14\--|---------9---9---9\-----------------
A |-2--0~-------------------|-2--0~----------------2--3~-----6~--
E |-------------------------|------------------------------------

couplet (sommige noten worden soms vaker gespeeld)
G |---------------------------------------------------------
D |---------------------------------------------------------
A |-----2-------------2-------------------------------------
E |-3-5---5-3---0-3-5---5-3---3-0-2-3-2-0----3-0-2-3-2-0-0--
[ Tab from: http://www.guitartabs.cc/tabs/d/doemaar/tijd_genoeg_btab.html ]
------------------------------|-----------|---2-/4-/4----
------------------------------|-2-4-5-4-2-|2-5-----------
---0-2-3-2-0---0-2-4-5-4-2---2|-----------|------------2-
-0----------------------------|-----------|--------------

vervang soms het laatste gedeelte met het een-na-laatste

refrein
G |----------------------------------------------------------------------------
D |----------------------------------------------------------------------------
A |---7-7-7-7-7-----9--9\-----7-7-7-7-7--9-----------7-7-7-7-7-----9--9\---9---
E |-5------------7----------5---------------7--7---5------------7---------7-78-

outro = intro zonder laatste toon

tabbing done by dION (kantongerecht@hotmail.com)
Comments