Doemaar - Nederwiet Chords & Tabs

 

Nederwiet Chords & Tabs

Doemaar Chords & Tabs

Version: 1 Type: Bass Tab 0 ratings
1 star 2 stars 3 stars 4 stars 5 stars
comments

Nederwiet Bass Tab

   
Doe maar - Nederwiet

main line
G |-2----------------------
D |---2--------------------
A |------3-3-3-2-----------
E |---------------5-5-2-3--

pre verse (refrein)
G |-------------------------------
D |---2------------2-2-2-2-2-2-2--
A |-3---3-----2-------------------
E |---------3---3-----------------

verse              2x
G |------------------|-------------------|-----------------------|
D |---2-2-2-2--------|-----2-5-----------|----2-2-2-2------------|
A |-0---------0-0-0--|-3-3-----------2-5-|-0---------------------|
E |------------------|-----------3-3-----|------------0-0-0-0-0--|
[ Tab from: http://www.guitartabs.cc/tabs/d/doemaar/nederwiet_btab.html ]
(wiedewiedewiet   net zo goed als...)
                           2x
G |---------|----------------|-5-2-------------| 
D |-5-4-5-4-|5-2-------------|-----5-2-----2---|
A |---------|----5-2-----2---|---------3-3---3-|
E |---------|--------3-3---3-|-----------------|

G |----------------|-5-2-------------|----------------|-----|
D |5-2-------------|-----5-2-----2---|5-2-------------|-----|
A |----5-2-----2---|---------3-3---3-|----5-2-----2---|-----|
E |--------3-3---3-|-----------------|--------3-3---3-|5~---|

outro
G |---
D |---
A |---
E |-5-

tabbed by dION (kantongerecht@hotmail.com)
Comments