Doemaar - He He Chords & Tabs

 

He He Chords & Tabs

Doemaar Chords & Tabs

Version: 1 Type: Bass Tab 0 ratings
1 star 2 stars 3 stars 4 stars 5 stars
comments

He He Bass Tab

Doe Maar - He He (bass)

intro
G |-------------------------------------
D |-------------------------------------
A |-------7~-------------7--------------
E |--5~--------8~-----5-------8--7--5-----

G |-------------------------------------
D |----------5~-----------555-----------
A |----5--55------------5------5--------
E |--3----------------------------3--0--

G |-------------------------------------
D |-------------------------------------
A |---7-7-7-7------------7--7-----------
E |-5----------8--8----5------8--7--5---

G |-------------------------------------
D |-------------------------------------
A |-------------------------------------
E |-0-3----1-----0----------------------

couplet (varieer met het ritme)
G |-------------------|---------------------
D |-2--5--0---0-55-0--|--2-------2---2------
A |-------------------|-0---2---2---2----2--
E |-------------------|---------------------3x

G |-----------------------
D |--------------------5--
A |---7----------5--55----
E |-3---8-7/---3----------

jeeeh he he... (melodie intro)
G |-------------------------------------
D |-------------------------------------
A |----7-7-7-------------7--------------
E |-5----------8-8-/--5------58--7--5---
[ Tab from: http://www.guitartabs.cc/tabs/d/doemaar/he_he_btab.html ]
					    variatie (3:49)
G |---------------|---------------------  |------7777-/1212121212\--
D |------------5~-|-555-5---555---------  |-5555--------------------
A |----5-5-5-5----|--------5----5-------  |-------------------------
E |--3------------|---------------3--0--  |-------------------------
					  variatie (4:02)
					  |------7777-----------12\-
					  |-5555-------5--5--/12----
					  |-------------------------
					  |-------------------------

G |-------------------------------------
D |-------------------------------------
A |---7-7-7-7------------7---7----------
E |-5----------8--8----5------8--7--5---

G |-------------------------------------
D |-------------------------------------
A |-------------------------------------
E |-0-3----1-----0----------------------

instrumentaal gedeelte (1):
G |-----------------------------
D |------9----------------------
A |---7-----1010--9--57--5------
E |-10--------------------0-0~--

G |----------------------------------------------
D |------9----------11h12~-12~--12~---12~----12~-
A |---7-----1010--9------------------------------
E |-10-------------------------------------------

instrumentaal gedeelte (2):
(2:31)
G |----------------------------------------------
D |----------------------------------------------
A |-5-7-5---5---575---------5777---5---5777---5--
E |-------7---7-----7-0----------7---7------7----

(2:36)
G |-----------------------------------------------
D |-----5-----------------------------------------
A |-5-7---7-5---5--5-5-5----5777555---------------
E |-----------7---7-7-7------------777555-3-0-0-0-

(2:43)
G |-----------------------------------
D |-----9-------5---------------------
A |-5-7-----5-7-----5-7-5-------------
E |-----------------------7~--7-7~----

outro (repeat until fade)
G |------19-----18----19----18-
D |-/17~----\16----/17~--\16---
A |----------------------------
E |----------------------------

submitted by dION (kantongerecht@hotmail.com)
Comments