Doe Maar - Pa Chords & Tabs

 

Pa Chords & Tabs

Doe Maar Chords & Tabs

Version: 1 Type: Bass Tab 0 ratings
1 star 2 stars 3 stars 4 stars 5 stars
comments

Pa Bass Tab

Doe maar - Pa

G|----------
D|-2-2------
A|----------
E|------3-3-

variatie
G|----------------
D|-2-2------------
A|-------------5--
E|-----3-3-/7-----

ik weet niet waar.../ met mijn ogen dicht
          3x
G|--------------|--------------
D|--------------|--------------
A|-3-3-3--2-2-2-|0---2-5-------
E|--------------|--------0-3-0-
[ Tab from: http://www.guitartabs.cc/tabs/d/doe_maar/pa_btab.html ]
2x volgende twee bars + 1ste nog een keer
G|---4-4-4-4-4-4-2-------
D|-2---------------------
A|-----------------5-5---
E|-----------------------

G|-----------------------
D|-2-5-4-2----(7--7--7)--tweede keer
A|----------5------------
E|-------------5--5--5---

spreek met twee woorden
G|-----------------------
D|---5-5-5-5---4---------
A|-3---------------2--2--
E|-----------------------

G|-----------------------
D|----5-5-5-------7-7-7--
A|-3----------35---------
E|-----------------------

submitted by dION (kantongerecht@hotmail.com)
Comments