Dobson Fefe - Take Me Away Chords & Tabs

 

Take Me Away Chords & Tabs

Dobson Fefe Chords & Tabs

Version: 1 Type: Chords 1 rating
1 star 2 stars 3 stars 4 stars 5 stars
comments

Take Me Away Chords

				Take me away
				FEFE DOBSON 
				from the album Fefe Dobson (2003)

standard tuning EBGDAE


Intro :
E----------------------------------------------------------------------------------------
B----------------------------------------------------------------------------------------
G----------------------------------------------------------------------------------------
D--11-11-11-11-11----------7-7-7-7-7----------11-11-11-11-11----------7-7-7-7-7----------
A--11-11-11-11-11--6-7-7---7-7-7-7-7--6-7-7---11-11-11-11-11--6-7-7---7-7-7-7-7--6-7-6---
E---9--9--9--9--9----------5-5-5-5-5-----------9--9--9--9--9----------5-5-5-5-5----------

Verse 1 :
E----------------------
B----------------------
G----------------------
D--6-6--7-----6-6--11--
A--6-6--7-----6-6--11--
E--4-4--5-----4-4---9--


Verse 2:
E----------------------------------------
B----------------------------------------
G----------------------------------------
D--6-6--7--11-11-11-11-11----6-6--7-7----
A--6-6--7--11-11-11-11-11----6-6--7-7----
E--4-4--5---9--9--9--9--9----4-4--5-5----
[ Tab from: http://www.guitartabs.cc/tabs/d/dobson_fefe/take_me_away_crd.html ]
Pre-Chorus:
E----------------------------------------
B----------------------------------------
G----------------------------------------
D--7-7-7-7-7-7-7-7----6-6-6-6-6-6-6-6----
A--7-7-7-7-7-7-7-7----6-6-6-6-6-6-6-6----
E--5-5-5-5-5-5-5-5----4-4-4-4-4-4-4-4----

Chorus:
E-----------------------------------------------------
B-----------------------------------------------------
G-----------------------------------------------------
D--11-11-11-11----6-6--7-7-7-7----6-6--11-11-11-11----
A--11-11-11-11----6-6--7-7-7-7----6-6--11-11-11-11----
E---9--9--9--9----4-4--5-5-5-5----4-4---9--9--9--9----

Intro variation:
E--------------------------------------------------------------19-17--19-17--19-17--19-17--
B------------------------------------------------------------------------------------------
G------------------------------------------------------------------------------------------
D--11-11-11-11-11----------6-6-6-6-6----------7-7-7-7-7------------------------------------
A--11-11-11-11-11--6-7-7---6-6-6-6-6--6-7-7---7-7-7-7-7--6-7-7-----------------------------
E---9--9--9--9--9----------4-4-4-4-4----------5-5-5-5-5------------------------------------

Chorus variation:
E-----------------------------------------------------
B-----------------------------------------------------
G-----------------------------------------------------
D--11-11-11-11-11-11-11-11----6-6-6-6-6-6-6-6---------
A--11-11-11-11-11-11-11-11----6-6-6-6-6-6-6-6---------
E---9--9--9--9--9--9--9--9----4-4-4-4-4-4-4-4---------












Comments