Dobbyn Dave - Loyal Chords & Tabs

 

Loyal Chords & Tabs

Dobbyn Dave Chords & Tabs

Version: 2 Type: Tab 0 ratings
1 star 2 stars 3 stars 4 stars 5 stars
comments

Loyal Tab

   
#----------------------------------PLEASE NOTE---------------------------------#
#This file is the author's own work and represents their interpretation of the #
#song. You may only use this file for private study, scholarship, or research. #
#------------------------------------------------------------------------------##

Artist - Dobbyn Dave   
Song - Loyal
Tabbed by - Malachy Boyes (mal_drinks@yahoo.com.au)

H = Harmonics

Heres a great kiwi classic, enjoy 

INTRO:
    
e|-----------------------------------|----------------------------------|
B|-----------H12-----H12-H12---------|-H12-----H12-H12------------------|
G|--------------------------H12------|-----------------H12-----H12------|
D|---H12---------H12-------------H12-|-----H12-------------H12----------|
A|-----------------------------------|----------------------------------|
E|-----------------------------------|----------------------------------|

e|-----------------------------------|----------------------------------|
B|-----------H12-----H12-H12---------|-H12-----H12-H12------------------|
G|--------------------------H12------|-----------------H12-----H12------|
D|---H12---------H12-------------H12-|-----H12-------------H12----------|
A|-----------------------------------|----------------------------------|
E|-----------------------------------|----------------------------------|

e|-----------------------------------|----------------------------------|
B|----------H12-----H12-H12----------|-H12-----H12-H12------------------|
G|--------------------------H12------|-----------------H12-----H12------|
D|--H12---------H12-------------H12--|-----H12-------------H12------0---|
A|-----------------------------------|----------------------------------|
E|-----------------------------------|----------------------------------|

e|-------------------------|--------------5------------|
B|----------3--------3-----|-----------3-----3---------|
G|-------0--------------0--|--------0-----------0------|
D|----2-----------2--------|-----4-----------------4---|
A|-3-----------------------|--5------------------------|
E|-------------------------|---------------------------|

e|-----------------------------------|----------------------------------|
B|----------H12-----H12-H12----------|-H12-----H12-H12------------------|
G|--------------------------H12------|-----------------H12-----H12------|
D|--H12---------H12-------------H12--|-----H12-------------H12------0---|
A|-----------------------------------|----------------------------------|
E|-----------------------------------|----------------------------------|

e|-------------------------|--------------5------------|
B|----------3--------3-----|-----------3-----3---------|
G|-------0--------------0--|--------0-----------0------|
D|----2-----------2--------|-----4-----------------4---|
A|-3-----------------------|--5------------------------|
E|-------------------------|---------------------------|
   
e|-------------------------|------------------------|------------------------|
B|-------------------------|------------------------|----------3--------3----|
D|--0--0--0--0--0--0--0--0-|-0--0--0--0--0--0--0--0-|-------0-----0--------0-|
G|--5--5--5--5--5--5--5--5-|-5--5--5--5--5--4--5--0-|----2-----------2-------|
A|-------------------------|------------------------|-3----------------------|
E|-------------------------|------------------------|------------------------|
    I can't remember_______  
e|--------------5----------|------------------------|------------------------|
B|-----------3-----3-------|------------------------|------------------------|
G|--------0-----------0----|-0--0--0--0--0--0--0--0-|-0--0--0--0--0--0--0--0-|
D|-----4-----------------4-|-5--5--5--5--5--5--5--5-|-5--5--5--5--5--4--5--0-|
A|--5----------------------|------------------------|------------------------|
E|-------------------------|------------------------|------------------------|
  

e|-------------------------|--------------5-------------|
B|----------3--------3-----|-----------3-----3----------|
G|-------0-----0--------0--|--------0-----------0-------|
D|----2-----------2--------|-----4-----------------0----|
A|-3-----------------------|--5-------------------------|
E|-------------------------|----------------------------|

  
e|------------------------|------------------------|
B|------------------------|------------------------|
G|-0--0--0--0--0--0--0--0-|-0--0--0--0--0--0--0--0-|
D|-5--5--5--5--5--5--5--5-|-5--5--5--5--5--4--5--0-|
A|------------------------|------------------------|
E|------------------------|------------------------|
   
        
e|-------------------------|--------------5-------------|
B|----------3--------3-----|-----------3-----3----------|
G|-------0-----0--------0--|--------0-----------0-------|
D|----2-----------2--------|-----4-----------------0----|
A|-3-----------------------|--5-------------------------|
E|-------------------------|----------------------------|
  
  
e|------------------------|------------------------|
B|------------------------|------------------------|
G|-0--0--0--0--0--0--0--0-|-0--0--0--0--0--0--0--0-|
D|-5--5--5--5--5--5--5--5-|-5--5--5--5--5--4--5--0-|
A|------------------------|------------------------|
E|------------------------|------------------------|


e|-------------------------|--------------5-------------|
B|----------3--------3-----|-----------3-----3----------|
G|-------0-----0--------0--|--------0-----------0-------|
D|----2-----------2--------|-----4-----------------0----|
A|-3-----------------------|--5-------------------------|
E|-------------------------|----------------------------|
  Let's get on with it_____

CHORUS:
e|------------------------|-------------0----------|------------------------|
B|-------3--------3-------|----------3-----3-------|----------3--------3----|
G|----0--------0----------|-------0-----------0----|-------0-----0--------0-|
D|-5--------4--------5--4-|----4-----------------0-|----2-----------2-------|
A|------------------------|------------------------|-3----------------------|
E|------------------------|-0----------------------|------------------------|
   Loyal__________________
  
|--------------5----------|------------------------|-------------0----------|
|-----------3-----3-------|-------3--------3-------|----------3-----3-------|
|--------0-----------0----|----0--------0----------|-------0-----------0----|
|-----4-----------------4-|-5--------4--------5--4-|----4-----------------0-|
|--5----------------------|------------------------|------------------------|
|-------------------------|------------------------|-0----------------------|
     
  
|------------------------|--------------5----------|------------------------|
|----------3--------3----|-----------3-----3-------|-------3--------3-------|
|-------0-----0--------0-|--------0-----------0----|----0--------0----------|
|----2-----------2-------|-----4-----------------4-|-5--------4--------5--4-|
|-3----------------------|--5----------------------|------------------------|
|------------------------|-------------------------|------------------------|
  
  
|-------------0----------|------------------------|--------------5----------|
|----------3-----3-------|----------3--------3----|-----------3-----3-------|
|-------0-----------0----|-------0-----0--------0-|--------0-----------0----|
|----4-----------------4-|----2-----------2-------|-----4-----------------4-|
|------------------------|-3----------------------|--5----------------------|
|-0----------------------|------------------------|-------------------------|
            
  
|-0-----------------------|-5-5----------------------||
|-1-----------------------|-3-3----------------------||
|-0-----------------------|-0-0----------------------||
|-2-----------------------|-4-4----------------------||
|-3-----------------------|-5-5----------------------||
|-------------------------|--------------------------||
  Loyal___________________


   
||----------------------------------|---------------------------------|
||---------H12-----H12-H12----------|-H12-----H12-H12-----------------|
||-------------------------H12------|-----------------H12-----H12-----|
||-H12---------H12-------------H12--|-----H12-------------H12---------|
||--10------------------------------|---------------------------------|
||----------------------------------|---------------------------------|

 
|----------------------------------|---------------------------------|
|---------H12-----H12-H12----------|-H12-----H12-H12-----------------|
|-------------------------H12------|-----------------H12-----H12-----|
|-H12---------H12-------------H12--|-----H12-------------H12---------|
|----------------------------------|---------------------------------|
|----------------------------------|---------------------------------|
                                     Keep it that way girl...
   
|----------------------------------|---------------------------------|
|---------H12-----H12-H12----------|-H12-----H12-H12-----------------|
|-------------------------H12------|-----------------H12-----H12-----|
|-H12---------H12-------------H12--|-----H12-------------H12---------|
|----------------------------------|---------------------------------|
|----------------------------------|---------------------------------|

 
|----------------------------------|---------------------------------|
|---------H12-----H12-H12----------|-H12-----H12-H12-----------------|
|-------------------------H12------|---------------------------------|
|-H12---------H12-------------H12--|-----H12-------------------------|
|----------------------------------|---------------------------------|
|----------------------------------|---------------------------------|


e|------------------------|------------------------|
B|------------------------|------------------------|
G|-0--0--0--0--0--0--0--0-|-0--0--0--0--0--0--0--0-|
D|-5--5--5--5--5--5--5--5-|-5--5--5--5--5--4--5--0-|
A|------------------------|------------------------|
E|------------------------|------------------------|
   
e|-------------------------|--------------5-------------|
B|----------3--------3-----|-----------3-----3----------|
G|-------0-----0--------0--|--------0-----------0-------|
D|----2-----------2--------|-----4-----------------0----|
A|-3-----------------------|--5-------------------------|
E|-------------------------|----------------------------|
 
[ Tab from: http://www.guitartabs.cc/tabs/d/dobbyn_dave/loyal_tab_ver_2.html ]
e|------------------------|------------------------|
B|------------------------|------------------------|
G|-0--0--0--0--0--0--0--0-|-0--0--0--0--0--0--0--0-|
D|-5--5--5--5--5--5--5--5-|-5--5--5--5--5--4--5--0-|
A|------------------------|------------------------|
E|------------------------|------------------------|
 
        
e|-------------------------|--------------5-------------|
B|----------3--------3-----|-----------3-----3----------|
G|-------0-----0--------0--|--------0-----------0-------|
D|----2-----------2--------|-----4-----------------0----|
A|-3-----------------------|--5-------------------------|
E|-------------------------|----------------------------|
  
  
e|------------------------|------------------------|
B|------------------------|------------------------|
G|-0--0--0--0--0--0--0--0-|-0--0--0--0--0--0--0--0-|
D|-5--5--5--5--5--5--5--5-|-5--5--5--5--5--4--5--0-|
A|------------------------|------------------------|
E|------------------------|------------------------|
 

e|-------------------------|--------------5-------------|
B|----------3--------3-----|-----------3-----3----------|
G|-------0-----0--------0--|--------0-----------0-------|
D|----2-----------2--------|-----4-----------------0----|
A|-3-----------------------|-/5-------------------------|
E|-------------------------|----------------------------|
  

e|------------------------|------------------------|
B|------------------------|------------------------|
G|-0--0--0--0--0--0--0--0-|-0--0--0--0--0--0--0--0-|
D|-5--5--5--5--5--5--5--5-|-5--5--5--5--5--4--5--0-|
A|------------------------|------------------------|
E|------------------------|------------------------|
   

e|-------------------------|--------------5-------------|
B|----------3--------3-----|-----------3-----3----------|
G|-------0-----0--------0--|--------0-----------0-------|
D|----2-----------2--------|-----4-----------------0----|
A|-3-----------------------|--5-------------------------|
E|-------------------------|----------------------------|



CHORUS:
e|------------------------|-------------0----------|------------------------|
B|-------3--------3-------|----------3-----3-------|----------3--------3----|
G|----0--------0----------|-------0-----------0----|-------0-----0--------0-|
D|-5--------4--------5--4-|----4-----------------0-|----2-----------2-------|
A|------------------------|------------------------|-3----------------------|
E|------------------------|-0----------------------|------------------------|
                                                I'll say you're Loyal_______  
  
e|--------------5----------|------------------------|-------------0----------|
B|-----------3-----3-------|-------3--------3-------|----------3-----3-------|
G|--------0-----------0----|----0--------0----------|-------0-----------0----|
D|-----4-----------------4-|-5--------4--------5--4-|----4-----------------0-|
A|--5----------------------|------------------------|------------------------|
E|-------------------------|------------------------|-0----------------------|
        
  
e|------------------------|--------------5----------|------------------------|
B|----------3--------3----|-----------3-----3-------|-------3--------3-------|
G|-------0-----0--------0-|--------0-----------0----|----0--------0----------|
D|----2-----------2-------|-----4-----------------4-|-5--------4--------5--4-|
A|-3----------------------|--5----------------------|------------------------|
E|------------------------|-------------------------|------------------------|
  
  
e|-------------0----------|------------------------|--------------5----------|
B|----------3-----3-------|----------3--------3----|-----------3-----3-------|
G|-------0-----------0----|-------0-----0--------0-|--------0-----------0----|
D|----4-----------------4-|----2-----------2-------|-----4-----------------4-|
A|------------------------|-3----------------------|--5----------------------|
E|-0----------------------|------------------------|-------------------------|
                I hold you Loyal___________________
  
e|-0-----------------------|-5-5----------------------|
B|-1-----------------------|-3-3----------------------|
G|-0-----------------------|-0-0----------------------|
D|-2-----------------------|-4-4----------------------|
A|-3-----------------------|-5-5----------------------|
E|-------------------------|--------------------------|
  Loyal____________________

e|-------------------------|--------------5----------|------------------------|
B|-----------3--------3----|-----------3-----3-------|----------3--------3----|
G|--------0-----0--------0-|--------0-----------0----|-------0-----0--------0-|
D|-----2-----------2-------|-----4-----------------4-|----2-----------2-------|
A|--3----------------------|--5----------------------|-3----------------------|
E|-------------------------|-------------------------|------------------------|
                              

e|--------------5----------|------------------------|--------------5-----------|
B|-----------3-----3-------|----------3--------3----|-----------3-----3--------|
G|--------0-----------0----|-------0-----0--------0-|--------0-----------0-----|
D|-----4-----------------4-|----2-----------2-------|-----4-----------------4--|
A|--5----------------------|-3----------------------|--5-----------------------|
E|-------------------------|------------------------|--------------------------|
      
e|-------------------------|--------------5----------|------------------------|
B|-----------3--------3----|-----------3-----3-------|----------3--------3----|
G|--------0-----0--------0-|--------0-----------0----|-------0-----0--------0-|
D|-----2-----------2-------|-----4-----------------4-|----2-----------2-------|
A|--3----------------------|--5----------------------|-3----------------------|
E|-------------------------|-------------------------|------------------------|
     

e|--------------5----------|------------------------|--------------5-----------|
B|-----------3-----3-------|----------3--------3----|-----------3-----3--------|
G|--------0-----------0----|-------0-----0--------0-|--------0-----------0-----|
D|-----4-----------------4-|----2-----------2-------|-----4-----------------4--|
A|--5----------------------|-3----------------------|--5-----------------------|
E|-------------------------|------------------------|--------------------------|                         
  

e|-------------------------|--------------5------------|--------------------------|
B|----------3--------3-----|-----------3-----3---------|----------3--------3------|
G|-------0-----0--------0--|--------0-----------0------|-------0-----0--------0---|
D|----2-----------2--------|-----4-----------------4---|----2-----------2---------|                
A|-3-----------------------|--5------------------------|-3------------------------|             
E|-------------------------|---------------------------|--------------------------|           
    

e|-------------5----------|
B|----------3-----3-------|
G|-------0-----------0----|
D|----4-----------------4-|
A|-5----------------------|
E|------------------------|    
 

CHORUS 

ENDING:
   
e|------------------------|-------------0----------|------------------------|
B|-------3--------3-------|----------3-----3-------|----------3--------3----|
G|----0--------0----------|-------0-----------0----|-------0-----0--------0-|
D|-5--------4--------5--4-|----4-----------------0-|----2-----------2-------|
A|------------------------|------------------------|-3----------------------|
E|------------------------|-0----------------------|------------------------|
   Loyal__________________
  
e|--------------5----------|------------------------|-------------0----------|
B|-----------3-----3-------|-------3--------3-------|----------3-----3-------|
G|--------0-----------0----|----0--------0----------|-------0-----------0----|
D|-----4-----------------4-|-5--------4--------5--4-|----4-----------------0-|
A|--5----------------------|------------------------|------------------------|
E|-------------------------|------------------------|-0----------------------|
      
  
e|------------------------|--------------5----------|------------------------|
B|----------3--------3----|-----------3-----3-------|-------3--------3-------|
G|-------0-----0--------0-|--------0-----------0----|----0--------0----------|
D|----2-----------2-------|-----4-----------------4-|-5--------4--------5--4-|
A|-3----------------------|--5----------------------|------------------------|
E|------------------------|-------------------------|------------------------|
   
  
e|-------------0----------|------------------------|--------------5----------|
B|----------3-----3-------|----------3--------3----|-----------3-----3-------|
G|-------0-----------0----|-------0-----0--------0-|--------0-----------0----|
D|----4-----------------4-|----2-----------2-------|-----4-----------------4-|
A|------------------------|-3----------------------|--5----------------------|
E|-0----------------------|------------------------|-------------------------|
          
  
e|-0-----------------------|-5-5----------------------|
B|-1-----------------------|-3-3----------------------|
G|-0-----------------------|-0-0----------------------|
D|-2-----------------------|-4-4----------------------|
A|-3-----------------------|-5-5----------------------|
E|-------------------------|--------------------------|


e|------------------------|-------------0----------|------------------------|
B|-------3--------3-------|----------3-----3-------|----------3--------3----|
G|----0--------0----------|-------0-----------0----|-------0-----0--------0-|
D|-5--------4--------5--4-|----4-----------------0-|----2-----------2-------|
A|------------------------|------------------------|-3----------------------|
E|------------------------|-0----------------------|------------------------|
   
  
e|--------------5----------|------------------------|-------------0----------|
B|-----------3-----3-------|-------3--------3-------|----------3-----3-------|
G|--------0-----------0----|----0--------0----------|-------0-----------0----|
D|-----4-----------------4-|-5--------4--------5--4-|----4-----------------0-|
A|--5----------------------|------------------------|------------------------|
E|-------------------------|------------------------|-0----------------------|
       
  
e|------------------------|--------------5----------|------------------------|
B|----------3--------3----|-----------3-----3-------|-------3--------3-------|
G|-------0-----0--------0-|--------0-----------0----|----0--------0----------|
D|----2-----------2-------|-----4-----------------4-|-5--------4--------5--4-|
A|-3----------------------|--5----------------------|------------------------|
E|------------------------|-------------------------|------------------------|
 
  
e|-------------0----------|------------------------|--------------5----------|
B|----------3-----3-------|----------3--------3----|-----------3-----3-------|
G|-------0-----------0----|-------0-----0--------0-|--------0-----------0----|
D|----4-----------------4-|----2-----------2-------|-----4-----------------4-|
A|------------------------|-3----------------------|--5----------------------|
E|-0----------------------|------------------------|-------------------------|
   

e|-3-----------------------|-3----------------------|-3----------------------|
B|-3-----------------------|-3----------------------|-3----------------------|
G|-5-----------------------|-5----------------------|-5----------------------|
D|-5-----------------------|-5----------------------|-5----------------------|
A|-3-----------------------|-3----------------------|-3----------------------|
E|-------------------------|------------------------|------------------------|
   loyal___________________
  
e|-3-----------------3----|-3----------------------|
B|-3-----------------3----|-3----------------------|
G|-5-----------------5----|-4----------------------| 
D|-5-----------------5----|-5----------------------|
A|-3-----------------3----|-5----------------------|
E|------------------------|-3----------------------|
 baby  Keep it that way now!
Comments