Do Me Bad Things - Whats Hideous Chords & Tabs

 

Whats Hideous Chords & Tabs

Do Me Bad Things Chords & Tabs

Version: 1 Type: Tab 0 ratings
1 star 2 stars 3 stars 4 stars 5 stars
comments

Whats Hideous Tab

do me bad things are a real band, which nobody has ever heared of. the supported the
darkness on thier gb tour. thier new album is called YES!.

band: do me bad things
song: what\'s hideous
album: YES! track #4

tabbed by: thetabgod
date: 1st august 2005

tuning: standard EADGBe


INTRO 
           x4
|--------------------------|
|--------------------------|
|--------------------------|
|--------------------------|
|-7--5--7--5--7-7--5--7--5-|
|--------------------------|


VERSE
           x2
|---------------------|
|---------------------|
|-9---9-7--6--5---7-9-|
|-9---9-7--6--5---7-9-|
|-7---7-5--4--3---5-7-|
|---------------------|


CHORUS
              x2
|---------------------------------------|
|---------------------------------------|
|--------------------------7--7-8-9-----|
|-2----5----7----8----9----7--7-8-9-----|
|-2----5----7----8----9----5--5-6-7-----|
|-0--0-3--3-5--5-6--6-7--7----------0-0-|

|---------------------------------|
|---------------------------------|
|-9--9-7--7-6--6-5--5-4--4-7--7-9-|
|-9--9-7--7-6--6-5--5-4--4-7--7-9-|
|-7--7-5--5-4--4-3--3-2--2-5--5-7-|
|---------------------------------|


VERSE
\"you..\"
|----------------------|
|----------------------|
|-2--------------------|
|-2--------------------|
|-0------------2-0---0-|
|------------------3---|

           x2
|---------------------|
|---------------------|
|-9---9-7--6--5---7-9-|
|-9---9-7--6--5---7-9-|
|-7---7-5--4--3---5-7-|
|---------------------|


CHORUS
              x2
|---------------------------------------|
|---------------------------------------|
|--------------------------7--7-8-9-----|
|-2----5----7----8----9----7--7-8-9-----|
|-2----5----7----8----9----5--5-6-7-----|
|-0--0-3--3-5--5-6--6-7--7----------0-0-|

|---------------------------------|
|---------------------------------|
|-9--9-7--7-6--6-5--5-4--4-7--7-9-|
|-9--9-7--7-6--6-5--5-4--4-7--7-9-|
|-7--7-5--5-4--4-3--3-2--2-5--5-7-|
|---------------------------------|


VERSE
\"you..\"
|----------------------|
|----------------------|
|-2--------------------|
|-2--------------------|
|-0------------2-0---0-|
|------------------3---|

             |slow down here and arpeggiate the chords
|---------------------|
|---------------------|
|-9---9-7--6--5---4-9-|
|-9---9-7--6--5---4-7-|
|-7---7-5--4--3---2-7-|
|---------------------|


INTERLUDE
female singer
\"do you know what is hideous...\"
[ Tab from: http://www.guitartabs.cc/tabs/d/do_me_bad_things/whats_hideous_tab.html ]
guitar comes in at the end with
|-------------------------------|
|-------------------------------|
|-5-5-5-5-5-5-5-5-77-77-77-77-7-|
|-5-5-5-5-5-5-5-5-77-77-77-77-7-|
|-3-3-3-3-3-3-3-3-55-55-55-55-5-|
|-------------------------------|
                 |speeds up here


VERSE
           x2
|---------------------|
|---------------------|
|-9---9-7--6--5---7-9-|
|-9---9-7--6--5---7-9-|
|-7---7-5--4--3---5-7-|
|---------------------|


CHORUS
              x2
|---------------------------------------|
|---------------------------------------|
|--------------------------7--7-8-9-----|
|-2----5----7----8----9----7--7-8-9-----|
|-2----5----7----8----9----5--5-6-7-----|
|-0--0-3--3-5--5-6--6-7--7----------0-0-|

|---------------------------------|
|---------------------------------|
|-9--9-7--7-6--6-5--5-4--4-7--7-9-|
|-9--9-7--7-6--6-5--5-4--4-7--7-9-|
|-7--7-5--5-4--4-3--3-2--2-5--5-7-|
|---------------------------------|


VERSE
\"you..\"
|----------------------|
|----------------------|
|-2--------------------|
|-2--------------------|
|-0------------2-0---0-|
|------------------3---|

             |slow down here and arpeggiate the chords
|---------------------|
|---------------------|
|-9---9-7--6--5---4-9-|
|-9---9-7--6--5---4-7-|
|-7---7-5--4--3---2-7-|
|---------------------|


SOLO lead in
|------------|
|--------9---|
|---7-99---9-| i haven\'t tabbed it all yet but it\'s
|-9----------| centered round Emaj pentatonic so fiddle round
|------------| with that for a bit.
|------------|


INTERLUDE
female singer
\"do you know what is hideous...\"

guitar comes in at the end with
|-------------------------------|
|-------------------------------|
|-5-5-5-5-5-5-5-5-77-77-77-77-7-|
|-5-5-5-5-5-5-5-5-77-77-77-77-7-|
|-3-3-3-3-3-3-3-3-55-55-55-55-5-|
|-------------------------------|
                 |speeds up here


VERSE
           x6
|---------------------|
|---------------------|
|-9---9-7--6--5---7-9-|
|-9---9-7--6--5---7-9-|
|-7---7-5--4--3---5-7-|
|---------------------|


CHORUS
distorted with solo guitar in background
              x2
|---------------------------------------|
|---------------------------------------|
|--------------------------7--7-8-9-----|
|-2----5----7----8----9----7--7-8-9-----|
|-2----5----7----8----9----5--5-6-7-----|
|-0--0-3--3-5--5-6--6-7--7----------0-0-|

         x3          end on
|-------------------|------|
|-------------------|------|
|-9--7--6--5--4--7--|--9---|
|-9--7--6--5--4--7--|--9---|
|-7--5--4--3--2--5--|--7---|
|-------------------|------|
Comments