Do Me Bad Things - Whats Hideous Chords & Tabs

 

Whats Hideous Chords & Tabs

Do Me Bad Things Chords & Tabs

Version: 1 Type: Bass Tab 0 ratings
1 star 2 stars 3 stars 4 stars 5 stars
comments

Whats Hideous Bass Tab

Do me Bad Things - What's Hideous (Bass Tab)

Intro (optional)
-----
-2-0-
-----
-----

Part 1
----------------|------|
--2--2--0-------|-0--2-|
-----------4--3-|------|
----------------|------|

Part 2
----------|------------------------------|
----------|----------------0--1--2-------|
----------|--0--0--1--2--2---------------|
--0--0--3-|-------------------------0--0-|

Part 3
------------------------|
------------------1--2--|
---------0--1--2--------|
--0--3------------------|

Part 4 - (The space between the first note and the rest is quite big. Play the first

note on "well you" and the next part after "person to call".)
----|------------|
----|------------|
--0-|--2--0---0--|
----|-------3----|

Part 5 - (The first few notes sound like part one again, but it slows down on the

fifth note. The sound is softer now until the 3333... bit.)
----------------------|---------------|-------------------------------|
--2--2--0-------------|---------------|-------------------------------|
-----------4--3--2--5-|----------2--1-|-0--------2-2-2-2-2-2-2-2-2-2--|
----------------------|--5--4--2------|----4--2-----------------------|
[ Tab from: http://www.guitartabs.cc/tabs/d/do_me_bad_things/whats_hideous_btab.html ]
-|---------------|---------------------------------------|
-|---------------|---------------------------------------|
-|-0--------2--1-|-0----3-3-3-3-3-3-3-3--5-5-5-5-5-5-5-5-|
-|----4--2-------|----4----------------------------------|


Breakdown!
---------------------------------------|--------------------------------|
-----------------0--1--2---------------|-----------0--1--2--------------|
--------0--1--2------------------------|---0--1--2----------------------|
--0--3-------------------0-0-0-0-0-0-0-|-3-----------------0-0-0-0-0-0--|

---------------------|-------------------|------------------|
----------------1--2-|--------------1--2-|-------------1--2-|
-------0--1--2-------|-----0--1--2-------|----0--1--2-------|
-0--3----------------|--3----------------|--3---------------|


Song Order:
Intro (optional) x16
Part 1 x2 (chantal's bit)\
Part 2 x2 (nicolai's bit) |Verse
Part 3 x1                 |
Part 4 x1                /
Part 1 x2\
Part 2 x2 |Verse again
Part 3 x1 |
Part 4 x1/
Part 5 x1 Chorus - (the slower bit)
Part 1 x2\
Part 2 x2 |Verse
Part 3 x1 |
Part 4 x1/
Part 5 x1 Chorus/slow bit again, with solo on first half
Part 1 x6
Breakdown!

Hope you enjoy playing this. It's a great song. If you did enjoy it, try Time For 
I tabbed that one too. :D
-xFishx-
Comments