Do Make Say Think - Soul And Onward Chords & Tabs

 

Soul And Onward Chords & Tabs

Do Make Say Think Chords & Tabs

Version: 1 Type: Tab 0 ratings
1 star 2 stars 3 stars 4 stars 5 stars
comments

Soul And Onward Tab

Tabbed by: Mark Sheddan
Tuning: Standard

This is the main riff for Guitar 1

e|---------------------------------------------------------------------------|}
B|---------------------------------------------------------------------------|
G|---------------------------------------------------------------------------| repeat for most of the 
D|---5-5-5------8-8-8/10---5-6-5--------5---5---5---5---5--------------------| entire song
A|--6-6-6-6---------------------6--------6---6---6---6---6-------------------|
E|----------------------------------------8---8---8--------------------------|}
[ Tab from: http://www.guitartabs.cc/tabs/d/do_make_say_think/soul_and_onward_tab.html ]
  At 1:31 he does this
e|---------------------------------------------------------------------------|
B|---------------------------------------------------------------------------|
G|---------------------------------------------------------------------------| 
D|---5-5-5------8-8-8/10---8*-6-5--------5---5---5---5---5-------------------| notice the *
A|--6-6-6-6---------------------6--------6---6---6---6---6-------------------|
E|----------------------------------------8---8---8--------------------------|
  which is almost the same thing its just a slight variation
 
And thats just about it
Comments