Do It Again - Riding Purple Dragons Chords & Tabs

 

Riding Purple Dragons Chords & Tabs

Do It Again Chords & Tabs

Version: 1 Type: Bass Tab 0 ratings
1 star 2 stars 3 stars 4 stars 5 stars
comments

Riding Purple Dragons Bass Tab

   
Author: Do It Again
Song: Riding Purple Dragons
Transcribed by Josh of Do It Again


G:-----------------------------------------------------------------------------
D:-----------------------------------------------------------------------------
A:-0-0-0-0-0-2-----2-2-2-2-2-3-------0-0-0-0-0-2-----2-2-2-2-2-3---
E:----------------------------------------------------------------------------- 

G:-----------------------------------------------  
D:----------2-2-2-2-------4-4-4-4------2-4--
A:-----------------------------------------------
E:-----------------------------------------------
[ Tab from: http://www.guitartabs.cc/tabs/d/do_it_again/riding_purple_dragons_btab.html ]
G:-----------------------------------------------------------------------------
D:-----------------------------------------------------------------------------
A:-0-0-0-0-0-2-----2-2-2-2-2-3-------0-0-0-0-0-2-----2-2-2-2-2-3---
E:----------------------------------------------------------------------------- 

G:-----------------------------------------------------------------------------
D:------------------------------------------------------------------------------
A:---0-2-3---0-2-3---0-2-3-2------------------0-2-3---0-2-3---0-2-3-2-
E:------------------------------------------------------------------------------

G:-------------------------------------------------------------------------------
D:-------------------------------------------------------------------------------
A:0-0-0-0-2-2-2-2-3-3-3-3-2-2-2-2-0-0-0-0-2-2-2-2-3-3-3-3-2-2-2-2-
E:--------------------------------------------------------------------------------

G:--------------------------------------------------  
D:----------2-2-2-2-------4-4-4-4------2b-4b--
A:--------------------------------------------------
E:---------------------------------------------------
Comments