Do It Again - Dear Mom Chords & Tabs

 

Dear Mom Chords & Tabs

Do It Again Chords & Tabs

Version: 1 Type: Bass Tab 0 ratings
1 star 2 stars 3 stars 4 stars 5 stars
comments

Dear Mom Bass Tab

g-----------------  
d-----------------  
a-----3----------- 
e-0--------3-----2  Do This x3

G-----------------------------------
D-----------------------------------
A------------3333-------------------
E--0000--------------2222-----3333-- Do this x2

[ Tab from: http://www.guitartabs.cc/tabs/d/do_it_again/dear_mom_btab.html ]
G----------------------------------------
D----------------------------------------
A-----------33-----------------------------
E---00---------------33-------22--------------- do this 2x

Then Go back to the first riff, play that twice then the second riff once 
and end it by playing the first riff slowly.

Thats Basically It,not too hard but it sounds great.


Tabbed By: Josh of Do It Again

Comments