Do As Infinity - Welcome Chords & Tabs

 

Welcome Chords & Tabs

Do As Infinity Chords & Tabs

Version: 1 Type: Bass Tab 0 ratings
1 star 2 stars 3 stars 4 stars 5 stars
comments

Welcome Bass Tab

Do As Infinity
Welcome!
Standard tuning
Tabbed by Alex Fragd mavrick45
Mavrick_45@sugarray.com


00:12
G---99999---------------------------------------------------2--------4------
D-----------------------------------2-1-0--0-0-0-0-0-2---3-----3--5-----5---
A---------0-2-3-4---4-------------------------------------------------------
E---------------------4-2---2-1-0-------------------------------------------


G-------------------------2-------4-----
D----------2-2---0-0---3----3---5---5---
A---0-0---------------------------------
E---------------------------------------



G------------------------2-------4-----------------------------------
D---------2-2---0-0---3----3---5---5---222222201222222012222222012---
A---0-0--------------------------------------------------------------
E--------------------------------------------------------------------


G-------------------------------------------------------2---------4----
D-------------------------------2-1-0--0-0-0-0-0-2---3-----3---5-----5-
A---12\0-2-3-4---4-----------------------------------------------------
E------------------4-2---2-1-0-----------------------------------------

X3
G----------------------------------------------------2---------4------
D----------------------------2-1-0--0-0-0-0-0-2---3-----3---5-----5---
A---0-2-3-4---4-------------------------------------------------------    
E---------------4-2---2-1-0-------------------------------------------


G---------------------11-----------2--------4-------6-6-----------
D--------2-2---0/12--------12\---3----3---5---5----------7-7-7----
A---0-0-----------------------------------------------------------
E-----------------------------------------------------------------


G-----------------2--------4----------------------------------------
D---2-2---0-0---3---3---5----5---222222201222222201---------012-----
A-------------------------------------------------------------------
E--------------------------------------------------00000000---------

[ Tab from: http://www.guitartabs.cc/tabs/d/do_as_infinity/welcome_btab.html ]
G-------------------------------------------------------2---------4----
D-------------------------------2-1-0--0-0-0-0-0-2---3-----3---5-----5-
A---12\0-2-3-4---4-----------------------------------------------------
E------------------4-2---2-1-0-----------------------------------------


G----------------------------------------------------2---------4-------
D----------------------------2-1-0--0-0-0-0-0-2---3-----3---5-----5----    
A---0-2-3-4---4--------------------------------------------------------
E---------------4-2---2-1-0--------------------------------------------


G-----------------------------------------------------------
D-----------14/---------------------------------------------
A---2-4-5-------2-4-5---2-4-5-----2-4-5---2-4-5---2-4-5-----     
E-----------------------------3-------------------------0---


G------------------------2-------4-----
D---------2-2---0-0---3----3---5---5---
A---0-0--------------------------------
E--------------------------------------


G---2-2-----------------2--------4----------------------------------------
D---------2-2---0-0---3----3---5---5---222222201222222----0122222222/14---
A-------------------------------------------------------------------------
E------------------------------------------------------00-----------------

Rest


G--/999999---------------------------------------------------2---------4-----
D------------------------------------2-1-0--0-0-0-0-0-2---3-----3---5-----5- 
A----------0-2-3-4---4-------------------------------------------------------
E----------------------4-2---2-1-0-------------------------------------------


G--------------------------------------------------------2---------4---
D---------------------------2-1-0/12-12-12-12-12-12---3-----3---5----5-
A---0-2-3-4--4---------------------------------------------------------
E--------------4-2---2-1-0---------------------------------------------

X2
G----------------------------------------------------2---------4-------
D----------------------------2-1-0--0-0-0-0-0-2---3-----3---5-----5---       
A---0-2-3-4---4--------------------------------------------------------
E---------------4-2---2-1-0--------------------------------------------


Ending
G--------------
D--------------
A---0-0--------
E---------1~---
Comments