Do As Infinity - Standing On The Hill Chords & Tabs

 

Standing On The Hill Chords & Tabs

Do As Infinity Chords & Tabs

Version: 1 Type: Bass Tab 0 ratings
1 star 2 stars 3 stars 4 stars 5 stars
comments

Standing On The Hill Bass Tab

Do As Infinity
Standing On the Hill
Standard Tuning
Tabbed by Alex Fragd (mavrick_45)
Mavrick_45@sugarray.com



Verse 1
G--------------------------------------------------------
D--------------------------1/3-3-3-5-5-5-----------1/3---
A---------------1-1-3-3-3-----------------1-1-3-3--------
E---\1-1-3-3-3-------------------------------------------


G-----------------------------------------------
D-------------------------1/3-3-3-5-5-5ó--------
A--------------1-1-3-3-3-----------------1/13---
E---1-1-3-3-3-----------------------------------


Verse 2 X2
G-------------------------
D---12>---9>---10>---7>---
A-------------------------
E-------------------------



Verse 3
G------------------------------------------
D---9-5-5-5-7-5-4-7-11-12-2-4-5-4-7-11-9---
A------------------------------------------
E------------------------------------------


G------------------------------------------------
D---9-7-5-7-5-4-7-11-9-11-12-14>-5>-10>-15-14\---
A------------------------------------------------
E------------------------------------------------

Repeat all
Verse 1 X1 donít slide up to 13
Rest

[ Tab from: http://www.guitartabs.cc/tabs/d/do_as_infinity/standing_on_the_hill_btab.html ]
Verse 4
G------------17-------------17----------------------------------------
D---19-17-19----17-19-17-19----17-15-14-12>-11>-9>-5>-12>-11>-9>-5>---
A---------------------------------------------------------------------
E---------------------------------------------------------------------

Rest

G----------------------------------------------------------
D---4-14-12-11-12-5-7-5-4-7-11-9-11-12-14>-5>-10>-15-14\---
A----------------------------------------------------------
E----------------------------------------------------------


Ending
G-------------------------------------------------------
D-------------------------1/3-3-3-5-5-5-----------1/3---
A--------------1-1-3-3-3-----------------1-1-3-3--------
E---1-1-3-3-3-------------------------------------------

G-----------------------------------------------
D-------------------------1/3-3-3-5-5-5---------
A--------------1-1-3-3-3-----------------1/15---
E---1-1-3-3-3-----------------------------------

G-------------------------------------------------------
D-------------------------1/3-3-3-5-5-5-----------1/3---
A--------------1-1-3-3-3-----------------1-1-3-3--------
E---1-1-3-3-3-------------------------------------------

G-------------------------------------------------------
D---3-3-2-2-2-0-0-----1/3-3-3-5-5-5-8-8-8-7-7-5-8/15>---
A-----------------3-3-----------------------------------
E-------------------------------------------------------
Comments