Do As Infinity - Sell Chords & Tabs

 

Sell Chords & Tabs

Do As Infinity Chords & Tabs

Version: 1 Type: Bass Tab 0 ratings
1 star 2 stars 3 stars 4 stars 5 stars
comments

Sell Bass Tab

Do As Infinity
Sell
Tabbed by Alex Fragd (mavrick_45)
Standard tuning
Mavrick_45@sugarray.com


Verse
G-----------------------
D-----------------------
A-----------------------
E---1---1---1---1---1---

[ Tab from: http://www.guitartabs.cc/tabs/d/do_as_infinity/sell_btab.html ]
Chorus
G---------------------------------------------------
D-----------------------3---1-------1-------1---3---
A--------3>---1>----------------3-------3-----------
E---1>-------------1>-------------------------------


Solo!
G--------------------------------------------------------------
D---3---15---14---10---12---20---19---10---12---10---9---15\---
A--------------------------------------------------------------
E--------------------------------------------------------------
Comments