Do As Infinity - Painful Chords & Tabs

 

Painful Chords & Tabs

Do As Infinity Chords & Tabs

Version: 1 Type: Bass Tab 0 ratings
1 star 2 stars 3 stars 4 stars 5 stars
comments

Painful Bass Tab

Do As Infinity
Painful
Standard Tuning
Tabbed By Alex Fragd (mavrick_45)
Mavrick_45@sugarray.com



This isn’t one of my favorite songs, Though I like the bass part.



Part one
G----------------------------------------------------------------------
D----------------------------------------------------------------------
A---6-6-6-6—-5--------3---------1-1—-6—6-6-6—-5-------3----------------
E--------------3-3-3----1-1—-3------------------3-3-3---1-1-1-—3-3-3---


G---------------------------------------------------------
D---------------------------------------------------------
A---5—-3-3-3-3—-2-------2-0-0-0---0-0-0-0-0—-5-5-5-5—-2---
E-----------------0-0-0---------0-------------------------


[ Tab from: http://www.guitartabs.cc/tabs/d/do_as_infinity/painful_btab.html ]
Part two X2
G-------------------------------------------------------------------------------------
D-------------------------------------------------------------------------------------
A---3-3-3-3-3-3-3-3-3-3—-2-2-2-2-2—-7-5-5-5-5-—3-3-3-3-3-3-3-3-3-3—-7-7-7-7-----------
E---------------------------------------------------------------------------7-0-0-0-0-


Part one
Part two X2


Part three
G---------------------------------------------------------------------------
D---------------------------------------------------------------------------
A---3-3-3-3-3--2-2--------0-0—-5-5-5—-7-7—-5-5-5-5—-3-3-3-3-3—-2-2----------
E-------------------0-0-0-------------------------------------------0-0-0---

G---------------------------------------------
D---------------------------------------------
A---0-0-0-0---0-0-0-0---5-5-5-5-5---2-2-2-2---
E-----------0---------------------------------


Part two X2


Ending with lots of distortion.  Repeat till end.
G------------------5---
D----------------------
A---3-3-3-3-3-3-3------
E----------------------
Comments