Do As Infinity - Honjitsu Wa Seiten Nari Chords & Tabs

 

Honjitsu Wa Seiten Nari Chords & Tabs

Do As Infinity Chords & Tabs

Version: 1 Type: Tab 0 ratings
1 star 2 stars 3 stars 4 stars 5 stars
comments

Honjitsu Wa Seiten Nari Tab

   
--------------------------------------------------------------------------
	    "Honjitsu wa Seiten Nari" - Do As Infinity
--------------------------------------------------------------------------

Tabbed by: Justin Riray (RiRaY) California baby! home of sexiness =D
Email: Pakman7JR@hotmail.com

Tuning: EADGBe


     VERSE

e|-----------------------------------------------------------------------|
B|-----------------------------------------------------------------------|
G|-------------------5--7-----7-----3----5-----   -----------------------|
D|-3-----3--7-----(7)5--7-----7-----3----5---- X2 -----------------------|
A|-3-----3--7-----(7)3--5-55555--11-1-33-3----   ------------------------|
E|-1-11111--5-5555(5)----------------------------------------------------|


     PRE-CHORUS

e|-----------------------------------------------------------------------|
B|-----------------------------------------------------------------------|
G|--5--5---9--9---12-12---15-15-15-15------------------------------------|
D|-----------------------------------------------------------------------|
A|--3--3---7--7---10-10---13-13-13-13------------------------------------|
E|-----------------------------------------------------------------------|



     CHORUS

e|-----------------------------------------------------------------------|
B|-----------------------------------------------------------------------|
G|-----------------------------------------------------------------------|
D|--8-88888--10-1010101010--3-33333--7-77777-----------------------------|
A|--8-88888--10-1010101010--3-33333--7-77777-----------------------------|
E|--6-66666---8--8-8-8-8-8--1-11111--5-55555-----------------------------|

e|-----------------------------------------------------------------------|
B|-----------------------------------------------------------------------|
G|-----------------------------------------------------------------------|
D|--8-88888--10-1010101010--3-33333--7-77777-----------------------------|
A|--8-88888--10-1010101010--3-33333--7-77777-----------------------------|
E|--6-66666---8--8-8-8-8-8--1-11111--5-55555-----------------------------|

e|-----------------------------------------------------------------------|
B|-----------------------------------------------------------------------|
G|-----------------------------------------------------------------------|
D|--8-88888--10-1010101010--3-33333--7-77777-----------------------------|
A|--8-88888--10-1010101010--3-33333--7-77777-----------------------------|
E|--6-66666---8--8-8-8-8-8--1-11111--5-55555-----------------------------|

e|-----------------------------------------------------------------------|
B|-----------------------------------------------------------------------|
G|-----------------------------------------------------------------------|
D|--8-88888--10-1010101010--3~ ------------------------------------------|
A|--8-88888--10-1010101010--3~ ------------------------------------------|
E|--6-66666---8--8-8-8-8-8--1~ ------------------------------------------|

     POST-CHORUS
e|-----------------------------------------------------------------------|
B|-----------------------------------------------------------------------|
G|-----------------------------------------------------------------------|
D|---7-7--8-8--5-5--3-3----7-7--8-8--5-5--3-3----------------------------|
A|-----------------------------------------------------------------------|
E|-----------------------------------------------------------------------|


     ~VERSE 2
     ~PRE-CHORUS 
     ~CHORUS 2 (no POST-CHORUS)
[ Tab from: http://www.guitartabs.cc/tabs/d/do_as_infinity/honjitsu_wa_seiten_nari_tab.html ]
     BRIDGE part1

e|-----------------------------------------------------------------------|
B|-----------------------------------------------------------------------|
G|--10---xx10--9---xx9--7---xx7--xx-3-xx-5-----   -----------------------|
D|---x---xx-x--x---xxx--x---xxx--xx-x-xx-x---- X2 -----------------------|
A|---8---xx-8--7---xx7--5---xx5--xx-1-xx-3----   ------------------------|
E|-----------------------------------------------------------------------|

e|-----------------------------------------------------------------------|
B|-----------------------------------------------------------------------|
G|------------------7---7-/--xx3-/-xx5-----   ---------------------------|
D|--3---3-/-7---7---x---x-/--xx3-/-xx5---- X2 ---------------------------|
A|--x---x-/-x---x---5---5-/--xx1-/-xx3----   ----------------------------|
E|--1---1-/-5---5--------------------------------------------------------|


     ~PRE-CHORUS
     ~CHORUS 3 (no POST-CHORUS)

     BRIDGE part2     

e|-----------------------------------------------------------------------|
B|-----------------------------------------------------------------------|
G|--10-xxxx10--9-xxxx9--------------5-555555-----------------------------|
D|---x-xxxx-x--x-xxxxx----3-333333--5-555555-----------------------------|
A|---8-xxxx-8--7-xxxx7----3-333333--3-333333-----------------------------|
E|------------------------1-111111---------------------------------------|

e|-----------------------------------------------------------------------|
B|-----------------------------------------------------------------------|
G|--10-xxxx10--9-xxxx9----3~ -------5~ ----------------------------------|
D|---x-xxxx-x--x-xxxxx----3~ -------5~ ----------------------------------|
A|---8-xxxx-8--7-xxxx7----1~ -------3~ ----------------------------------|
E|-----------------------------------------------------------------------|

  
     ~VERSE x3

     E N D

| /  slide up
| \  slide down
| ~  vibrato
| x  Mute note
===========================================================================





    CHORUS   lead guitar
  provided by
http://www.do-as-infinity.com/index.php?z=tabs.html

|--------------------------|------------------5--9-------|
|-----5--6--------5--8-----|-----6--10---------------10--|
|--3--------3--5--------7--|--5---------6--6-------------|
|--------------------------|-----------------------------|
|--------------------------|-----------------------------|
|--------------------------|-----------------------------|

|--------------------------|------------------5--9-------|
|-----5--6--------5--8-----|-----6--10---------------10--|
|--3--------3--5--------7--|--5---------6--6-------------|
|--------------------------|-----------------------------|
|--------------------------|-----------------------------|
|--------------------------|-----------------------------|

|--------------------------|------------------5--9-------|
|-----5--6--------5--8-----|-----6--10---------------10--|
|--3--------3--5--------7--|--5---------6--6-------------|
|--------------------------|-----------------------------|
|--------------------------|-----------------------------|
|--------------------------|-----------------------------|

|--------------------------||----------------------------|
|-----5--6--------5--8-----||----------------------------|
|--3--------3--5--------7--||----------------------------|
|--------------------------||----------------------   ---|
|--------------------------||-7-7--8-8--5-5--3-3-- X2 ---|
|--------------------------||---------------------   ----|
Comments