Do As Infinity - Hiiragi Chords & Tabs

 

Hiiragi Chords & Tabs

Do As Infinity Chords & Tabs

Version: 1 Type: Bass Tab 0 ratings
1 star 2 stars 3 stars 4 stars 5 stars
comments

Hiiragi Bass Tab

   
Do As Infinity
Hiiragi
Drop-D tuning
Tabbed By - Alex Fragd (mavrick_45)


G---------------------------------------------------------------
D-----------------------------------8-6---------6-4---6---8-6---
A---4---3---1---/9--11\---1---3-4---------1-3-----------6-------
D---------------------------------------------------------------


G------------12-10\-----------------------------------------------
D------------------------------------------13-11------------------
A-------6/10---------------------------------------13---13--------
D---6-----------------8---6--8--9---8--8/------------------15-8---


G---------------------------------------------------------------
D---------------------------------------------------------------
A---6--4--2---2-4-1-----4------------4--2---2-4-1-----------6---
D-----------4--------6-----4--8---1-------4--------6--8--1------

[ Tab from: http://www.guitartabs.cc/tabs/d/do_as_infinity/hiiragi_btab.html ]
G------------------------------------------------------------13\12---
D--------------------------------------------------------------------
A------4--2---2-4-1-----4---------6--4--2---2-4-1--------------------
D---1-------4--------6-----4--8-----------4---------6--8--1----------

Rest

G----------------------------------------------------------
D---13---11---9--------------------------------------------
A-----------------9--------------------------------8-------
D---------------------13--15-13-11---9---11--9--8/---8-8---


G-----------------------------------------------------------13\12---
D--------------------------------------------------6--8-------------
A------4--2---2-4-1-----4---------6--4--2---2-4-1-------------------
D---1-------4--------6-----4--8-----------4--------------1----------


G---15-------------------------------------4---4-6-3------------13\12--
D--------------------------------------------4---------6---------------
A-------4--2---2-4-1-----4------------6-4------------------------------
D------------4--------6-----4--8---1----------------------8--1---------

G---------------13\12---
D---6-------------------
A-----------------------
D-------8---1-----------
Comments