Do As Infinity - Break Of Dawn Chords & Tabs

 

Break Of Dawn Chords & Tabs

Do As Infinity Chords & Tabs

Version: 1 Type: Bass Tab 0 ratings
1 star 2 stars 3 stars 4 stars 5 stars
comments

Break Of Dawn Bass Tab

Do As Infinity
Break Of Dawn
Drop D tuning
Tabbed by Alex Fragd (mavrick_45)
Mavrick_45@sugarray.com


This is one of my favorite D.A.I songs, it was also very hard to tab because
I could hardly hear the bass part.  This is my best attempt:


Intro   00:47
G---6-777-4-----
D-----------6---
A---------------
D---------------


Part one X2                                 2nd time only
G----------------------------------------][---------
D----------------------------------------][---------
A---2---5---7--------------------5---7---][---/19---
D---------------2-4-5-6-7-8-9-----------][---------


Part two
G------------------------------------------------
D------------------------------------------------
A---14---5---7-----------------------------------
D----------------7---2---5-/-12---14---17---16---

[ Tab from: http://www.guitartabs.cc/tabs/d/do_as_infinity/break_of_dawn_btab.html ]
Part three X3
G-----------------------------------
D-----------------------------------
A-----------------------------------
D---9-9---7-7---2-2---2-4-5-6-7-8---


Part four
G---------------------------------
D---------------------------------
A---------------------------------
D---9-9---7-7---2-2---2-2---2-2---


Part five X2                                              2nd time only
G-----------------------------------------------------][---------
D-----------------------------------------------------][---------
A---2-2---5-5---7-7-----------------------5-5---7-7---][---/19---
D---------------------2-4-5-6-7-8---9-9---------------][---------


Part six X2     02:16          
G---11---14---13------11---14---16---13---
D-----------------------------------------
A----------------------------------------
D-----------------------------------------


End
G-------------------------------------------------------------------
D---on the sliding parts, keep your finger on the string the whole time
A-------------------------------------------------------------------
D---0-2-20-2-4/6/9\6/9/10-0-2-2-2-0-2-0-0-2-4/6/9\6/9/10-0-2-0-0---
Comments