Dmx - Where The Hood At Chords & Tabs

 

Where The Hood At Chords & Tabs

Dmx Chords & Tabs

Version: 1 Type: Bass Tab 0 ratings
1 star 2 stars 3 stars 4 stars 5 stars
comments

Where The Hood At Bass Tab

Artist: DMX
Song: Where the hood at?
Who submit the tab?: dennykarlsson88r2@skola.trelleborg.se


INTRO/BRITCH
G-------------
D-------------
A---1--5--8---
E-3-----------

When you listen to the song you hear when the bass play...

[ Tab from: http://www.guitartabs.cc/tabs/d/dmx/where_the_hood_at_btab.html ]
G-------------------------- 
D--------------------------     
A-----2--------------------     
E-1-----1------------------       

When you have played this^ 4-time this come:
G----------------  
D----------------
A----5/-----8----
E----------------
Comments