Dmx - Ruff Ryders Anthem Chords & Tabs

 

Ruff Ryders Anthem Chords & Tabs

Dmx Chords & Tabs

Version: 3 Type: Tab 0 ratings
1 star 2 stars 3 stars 4 stars 5 stars
comments

Ruff Ryders Anthem Tab

E------------------------------------------------------------------|
B-----4-4-----2-2------2-2---2---2-----2-2-----2-2-----2-2---------|
G-3-3-----3-3-----3-3------3---3---3-3-----1-1-----3-3-----3-3-3-3-|
D------------------------------------------------------------------|
A------------------------------------------------------------------|
E------------------------------------------------------------------|

E------------------------------------------------------------------|
B-----4-4-----2-2------2-2---2---2-----2-2-----2-2-----2-2-----2-2-|
G-3-3-----3-3-----3-3------3---3---3-3-----1-1-----3-3-----3-3-----|
D------------------------------------------------------------------|
A------------------------------------------------------------------|
E------------------------------------------------------------------|
[ Tab from: http://www.guitartabs.cc/tabs/d/dmx/ruff_ryders_anthem_tab_ver_3.html ]
Comments