Dkfm - Abba Zaba Chords & Tabs

 

Abba Zaba Chords & Tabs

Dkfm Chords & Tabs

Version: 1 Type: Tab 0 ratings
1 star 2 stars 3 stars 4 stars 5 stars
comments

Abba Zaba Tab

This is a really kick ass song that my band DKFM (drunken kung-fu monkeys) came up with.  enjoy!


Intro (played on bass)
e-----------------------------------------()----------------------------------------
b-----------------------------------------()----------------------------------------
g-----------------------------------------()----------------------------------------
d-----------------------------------------()----------------------------------------
a-----------------------------------------()----------------------------------------
e----0-0--1-1--5-5-5--4--4-4---(x3)-------()------0-0-------------------------------

PLAY INTRO KIND OF FAST

[ Tab from: http://www.guitartabs.cc/tabs/d/dkfm/abba_zaba_tab.html ]
Riff and Chorus (basically the rest of the song)
e---------------------------------------()-----------------------------------------
b---------------------------------------()-----------------------------------------
g---------------------------------------()-----------------------------------------
d---2-2---3---7-7-7---6--6-6------------()------ 2-2-------------------------------
a---2-2---3---7-7-7---6--6-6------------()-------2-2-------------------------------
e---0-0---1---5-5-5---4--4-4---(x3)-----()-------0-0-------------------------------


PLAY BASS AS YOU PLAY THE RIFF/CHORUS..... enjoy!

Any questions/comments e-mail me at MotoMonkey77@yahoo.com
Comments