Dj Shadow - Mongrel Chords & Tabs

 

Mongrel Chords & Tabs

Dj Shadow Chords & Tabs

Version: 1 Type: Tab 0 ratings
1 star 2 stars 3 stars 4 stars 5 stars
comments

Mongrel Tab

   
----------------------------------------------------------------------------
			     MONGREL - DJ Shadow
----------------------------------------------------------------------------
Tabbed by: Peter Richardson (petusfetus)
Email: petusfetus@hotmail.com

Tuning: Standard. EADGBe

Basically, just play this riff over and over.
[ Tab from: http://www.guitartabs.cc/tabs/d/dj_shadow/mongrel_tab.html ]
e|------------------------------------------------------------------------|
B|------------------------------------------------------------------------|
G|-------0----------------0-----------------------------------------------|
D|----5-----5----5-----5-----5-----5--------------------------------------|
A|-3-----------3----4-----------4-----------------------------------------|
E|------------------------------------------------------------------------|

e|------------------------------------------------------------------------|
B|------------------------------------------------------------------------|
G|-------0----------------0-----------------------------------------------|
D|----5-----5----5-----3-----3--------------------------------------------|
A|-3-----------3----6-----------6--5--------------------------------------|
E|------------------------------------------------------------------------|

| /  slide up
| \  slide down
| h  hammer-on
| p  pull-off
| ~  vibrato
| +  harmonic
| x  Mute note

============================================================================
Comments