Dj Sammy - Heaven Chords & Tabs

 

Heaven Chords & Tabs

Dj Sammy Chords & Tabs

Version: 4 Type: Tab 0 ratings
1 star 2 stars 3 stars 4 stars 5 stars
comments

Heaven Tab

-------------------------------------------------------------------------------
			     Heaven - Dj Sammy feat. Yanou
-------------------------------------------------------------------------------
Tabbed by: sOniCxTreefish a.k.a. The Big James

Tuning:
[ Tab from: http://www.guitartabs.cc/tabs/d/dj_sammy/heaven_tab_ver_4.html ]
/ = slide
                                 
e|3-3-3-5-5-7-7--7-8-10-10-10-8-7-5/3--3-3-3-3-3-5-5-7-7-5-3-5-2-0-0-2-------|
B|----------------------------------------------------------------3----------|
G|---------------------------------------------------------------------------|
D|---------------------------------------------------------------------------|
A|---------------------------------------------------------------------------|
E|---------------------------------------------------------------------------|

e|3-3-3-5-5-7-7--7-8-10-10-10-8-7-5/3--3-3-3-3-3-5-5-7-7-5-3-5-2-0-0-2-------|
B|----------------------------------------------------------------3----------|
G|---------------------------------------------------------------------------|
D|---------------------------------------------------------------------------|
A|---------------------------------------------------------------------------|
E|---------------------------------------------------------------------------|

Im still trying to figiure out the start and end and alot of other parts of the song.
Ill post it when I do figure it out.
Comments