Dj Sammy - Heaven Chords & Tabs

 

Heaven Chords & Tabs

Dj Sammy Chords & Tabs

Version: 2 Type: Tab 0 ratings
1 star 2 stars 3 stars 4 stars 5 stars
comments

Heaven Tab

-2-0-5---2-0-5---2-0-5-----------------------------------------------------
-3-------2-------0------3-2---3-2------------------------------------------
----------------------------------2---0-------------------0----------------
------------------------------------2----4--0-0--0-2-4-4-----0--0---0-2-0--
------------------------------------------------------------------4--------
---------------------------------------------------------------------------

[ Tab from: http://www.guitartabs.cc/tabs/d/dj_sammy/heaven_tab_ver_2.html ]
-5--5-3-2-2--2-2-0-0-------0--0-0------------------------------------------
-----------------------0-3---------3-0-------------------------------------
---------------------------------------------------------------------------
---------------------------------------------------------------------------
---------------------------------------------------------------------------
---------------------------------------------------------------------------


its just the melody...i just started learning the guitar..=)
Comments