Dizzy Mizz Lizzy - Waterline Chords & Tabs

 

Waterline Chords & Tabs

Dizzy Mizz Lizzy Chords & Tabs

Version: 3 Type: Tab 0 ratings
1 star 2 stars 3 stars 4 stars 5 stars
comments

Waterline Tab

   
    ____________________
   / Dizzy Mizz Lizzy  / 
  / Waterline         /  
 / Dizzy Mizz Lizzy  /   
/___________________/    

Tempo:   220 bpm
Tunings: Full Step Down (DGCFAD)

Guitar I  - Classic 'Dizzy-Overdrive'
Guitar II - Clean



INTRO:
 4/4
 Gtr I
            S     +E   E   E   E   S E   S +E   S S
|-------------||------------------------------------|
|-------------||o-------------------------------x-9-|
|-----------9-||--(9)-10--13--14--13\10--9-(9)--x-x-|
|-----------x-||-------x---x---x---x-----x------x-6-|
|-----------7-||o-(7)--8--11--12--11\8---7-(7)--x---|
|-------------||------------------------------------|


  +E   E   E   S   E E   S +E  S S    S E  E    S E  E    S E  S
|-------------10-------------------|-----------------------------|
|-(9)-10--12---x--10/12--9-(9)-x-x-|-10-9------10-9------10-9----|
|------x---x---7---x-----x-----x-x-|--x-x--9----x-x--7----x-x--6-|
|-(6)--7---9-------7/9---6-(6)-x-x-|--7-6--x----7-6--x----7-6--7-|
|------------------------------x-x-|-------7---------5---------7-|
|----------------------------------|---------------------------5-|


 1.                            2.
  +Q  E S S E S S E  +S   S     +Q  E S S E S S E  +S   S
|----------------------------||-----------------------------||
|-----------x-x-x-8~-(8)~---o||-----------x-x-x-8~-(8)~----o||
|-(6)-6-x-x-7-x-x-7~-(7)~-9--||-(6)-6-x-x-7-x-x-7~-(7)~-----||
|-(7)-7-x-x-7-x-x-7~-(7)~-x--||-(7)-7-x-x-7-x-x-7~-(7)~-----||
|-(7)-7-x-x-5-x-x-5~-(5)~-7-o||-(7)-7-x-x-5-x-x-5~-(5)~----o||
|-(5)-5-x-x------------------||-(5)-5-x-x---------------0---||


 3/4                      4/4
             |-3-|
  +E  S E E  S S S S S S   +Q   Q   Q   Q
|------------------------|------------------|
|------------------------|------------------|
|-------9--7-------------|------------------|
|-------x--x-------------|------------------|
|-------7--5-----------2-|-(2)--3---4---5---|
|-(0)-0------5h6p5-4-3-0-|-(0)--1---2---3---|



INTERLUDE:
 Gtr II
  S  S  S S S S +E  E S S S S +E    E S S S S S S S S S S S S +E
|---------------------------------|-------------------------------|
|---------6-------------6---------|-----6-------8---6-------------|
|-------7-----7-(7)---7-----7-(7)-|---7-----7-----------6---7-(7)-|
|-3/(5)-----5-------5-----5-------|-5-----5---5---5---5---5-------|
|---------------------------------|-------------------------------|
|---------------------------------|-------------------------------|


  E S S S S +E  E S S S S +E    E S S S S S S S S S S S S +E
|-----------------------------|-------------------------------|
|-----6-------------6---------|-----6-------8---6-------------|
|---7-----7-(7)---7-----7-(7)-|---7-----7-----------6---7-(7)-|
|-5-----5-------5-----5-------|-5-----5---5---5---5---5-------|
|-----------------------------|-------------------------------|
|-----------------------------|-------------------------------|



VERSE:
    E S S S S +E  E S S S S +E    E S S S S S S S S S S S S +E
||------------------------------|-------------------------------|
||o-----6-------------6---------|-----6-------8---6-------------|
||----7-----7-(7)---7-----7-(7)-|---7-----7-----------6---7-(7)-|
||--5-----5-------5-----5-------|-5-----5---5---5---5---5-------|
||o-----------------------------|-------------------------------|
||------------------------------|-------------------------------|


  E S S S S +E  E S S S S +E    E S S S S S S S S S S S S +E
|-----------------------------|-------------------------------|
|-----6-------------6---------|-----6-------8---6-------------|
|---7-----7-(7)---7-----7-(7)-|---7-----7-----------6---7-(7)-|
|-5-----5-------5-----5-------|-5-----5---5---5---5---5-------|
|-----------------------------|-------------------------------|
|-----------------------------|-------------------------------|


  E S S S S S S S S S S S E S   +E  S S S S +E  E S S S S +E
|-----------------------------|-------------------------------|
|-----6-------8---6-----------|-------4-------------4---------|
|---7-----7-----------7---6-5-|-(5)-5-----5-(5)---5-----5-(5)-|
|-5-----5---5---5---5---5-4-3-|-(3)-----3-------3-----3-------|
|-----------------------------|-------------------------------|
|-----------------------------|-------------------------------|


  E S S S S S S S S S S S E S
|-----------------------------|
|-----4-------6---4-----------|
|---5-----5-----------5---6-7-|
|-3-----3---3---3---3---3-4-5-|
|-----------------------------|
|-----------------------------|


 1.
  +E  S S S S +E  E S S S S +E    E S S S S S S S S S S S S +E
|-------------------------------|--------------------------------||
|-------6-------------6---------|-----6-------8---6-------------o||
|-(7)-7-----7-(7)---7-----7-(7)-|---7-----7-----------6---7-(7)--||
|-(5)-----5-------5-----5-------|-5-----5---5---5---5---5--------||
|-------------------------------|-------------------------------o||
|-------------------------------|--------------------------------||

 2.
 Gtr I
 2/4           4/4
  +Q  S S S S   +E  S S S S S  S S S S S S S S
|-------------|----------------------------------||
|-------------|-------8-------10---8------------o||
|-(7)-7-7-8-9-|-(9)-9-----9------------8---9-----||
|-(5)-5-5-6-7-|-(7)-----7---7----7---7---7---7\--||
|-------------|---------------------------------o||
|-------------|----------------------------------||



PRE-CHORUS:
                                                       2/4
  Q   Q   Q   Q     Q   Q   Q   Q     Q   Q   Q   Q     Q   E E
|-----------------|-----------------|-----------------|-------x-|
|-----------------|-3---3---5---4---|-----------------|-3---3-x-|
|-2---2---4---4---|-2---2---4---4---|-2---2---4---4---|-2---2-x-|
|-2---2---4---4---|-0---0---4---4---|-2---2---4---4---|-0---0-x-|
|-0---0---2---2---|---------2---2---|-0---0---2---2---|---------|
|-----------------|-----------------|-----------------|---------|


 4/4
  W         H.   S E.  S
|---------|------x-x\----|
|-5-------|-4----x-x\----|
|-4-------|-4----x-x\--9-|
|-4-------|-4----x-x\--x-|
|-2-------|-2----x-x\--7-|
|---------|------x-x\----|



CHORUS:
    +E   E   E   E   S E   S +E  S S
||-----------------------------------|
||o------------------------------x-9-|
||--(9)-10--13--14--13\10--9-(9)-x-x-|
||-------x---x---x---x-----x-----x-6-|
||o-(7)--8--11--12--11\8---7-(7)-x---|
||-----------------------------------|


  +E   E   E   S   E E   S +E  S S    S E  E    S E  E    S E  S
|-------------10-------------------|-----------------------------|
|-(9)-10--12---x--10/12--9-(9)-x-x-|-10-9------10-9------10-9----|
|------x---x---7---x-----x-----x-x-|--x-x--9----x-x--7----x-x--6-|
|-(6)--7---9-------7/9---6-(6)-x-x-|--7-6--x----7-6--x----7-6--7-|
|------------------------------x-x-|-------7---------5---------7-|
|----------------------------------|---------------------------5-|


 1.                            2.
  +Q  E S S E S S E  +S   S     +Q  E S S E S S E  +S   S
|----------------------------||----------------------------||
|-----------x-x-x-8~-(8)~---o||-----------x-x-x-8~-(8)~---o||
|-(6)-6-x-x-7-x-x-7~-(7)~-9--||-(6)-6-x-x-7-x-x-7~-(7)~----||
|-(7)-7-x-x-7-x-x-7~-(7)~-x--||-(7)-7-x-x-7-x-x-7~-(7)~-2--||
|-(7)-7-x-x-5-x-x-5~-(5)~-7-o||-(7)-7-x-x-5-x-x-5~-(5)~---o||
|-(5)-5-x-x------------------||-(5)-5-x-x------------------||



POST-CHORUS:
                    |-3-|                 |-3-|                 |-3-|
    +E  S S Q S S Q S S S   E S S Q S S Q S S S   E S S Q S S Q S S S
||----------0-----0-------|-------0-----0-------|-------0-----0-------|
||o-----------------------|---------------------|---------------------|
||------2h4---2h4---2h4p2-|---2h4---2h4---2h4p2-|---2h4---2h4---2h4p2-|
||--(2)-------------------|-0-------------------|---------------------|
||o-----------------------|---------------------|-4-------------------|
||------------------------|---------------------|---------------------|


 1.                         2.
  E S S S S S S E E E. S     E S S S S S S E E E S S
|-------------------------||------------------------||
|---5-5-5-5-x-x-8-8-8----o||---5-5-5-5-x-x-8-8-8---o||
|---5-5-5-5-x-x-7-7-7-----||---5-5-5-5-x-x-7-7-7----||
|---5-5-5-5-x-x-7-7-7--2--||---5-5-5-5-x-x-7-7-7----||
|-3-3-3-3-3-x-x-5-5-5----o||-3-3-3-3-3-x-x-5-5-5---o||
|-------------------------||---------------------0--||

[ Tab from: http://www.guitartabs.cc/tabs/d/dizzy_mizz_lizzy/waterline_tab_ver_3.html ]
 3/4                      4/4
             |-3-|
  +E  S E E  S S S S S S   +Q   Q   Q   Q
|------------------------|------------------|
|------------------------|------------------|
|-------9--7-------------|------------------|
|-------x--x-------------|------------------|
|-------7--5-----------2-|-(2)--3---4---5---|
|-(0)-0------5h6p5-4-3-0-|-(0)--1---2---3---|



INTERLUDE



VERSE:
 Gtr II
  E S S S S +E  E S S S S +E    E S S S S S S S S S S S S +E
|-----------------------------|-------------------------------|
|-----6-------------6---------|-----6-------8---6-------------|
|---7-----7-(7)---7-----7-(7)-|---7-----7-----------6---7-(7)-|
|-5-----5-------5-----5-------|-5-----5---5---5---5---5-------|
|-----------------------------|-------------------------------|
|-----------------------------|-------------------------------|


  E S S S S +E  E S S S S +E    E S S S S S S S S S S S S +E
|-----------------------------|-------------------------------|
|-----6-------------6---------|-----6-------8---6-------------|
|---7-----7-(7)---7-----7-(7)-|---7-----7-----------6---7-(7)-|
|-5-----5-------5-----5-------|-5-----5---5---5---5---5-------|
|-----------------------------|-------------------------------|
|-----------------------------|-------------------------------|


  E S S S S S S S S S S S E S   +E  S S S S +E  E S S S S +E
|-----------------------------|-------------------------------|
|-----6-------8---6-----------|-------4-------------4---------|
|---7-----7-----------7---6-5-|-(5)-5-----5-(5)---5-----5-(5)-|
|-5-----5---5---5---5---5-4-3-|-(3)-----3-------3-----3-------|
|-----------------------------|-------------------------------|
|-----------------------------|-------------------------------|


  E S S S S S S S S S S S E S   +E  S S S S +E  E S S S S +E
|-----------------------------|-------------------------------|
|-----4-------6---4-----------|-------6-------------6---------|
|---5-----5-----------5---6-7-|-(7)-7-----7-(7)---7-----7-(7)-|
|-3-----3---3---3---3---3-4-5-|-(5)-----5-------5-----5-------|
|-----------------------------|-------------------------------|
|-----------------------------|-------------------------------|


  E S S S S S S S S S S S S +E
|-------------8---7---5---7-(7)~\-|
|-----6---------6---6---6---(6)~\-|
|---7-----7-----------------------|
|-5-----5---5---------------------|
|---------------------------------|
|---------------------------------|



VERSE:
  Gtr I
    PM--------------------------------------------------------|
    E S S +E   E   E S S +E  E      E S S +E   S     E E E S +E
||--------------------------------|-------------------------------||
||o-------------------------------|------------------------------o||
||--------------------------------|-------------------------------||
||------3-(3)----------3-(3)------|-----3-(3)--------5-3----------||
||o---5--------5-----5--------5---|---5--------5---------4-5-(5)-o||
||--3--------------3--------------|-3-----------------------------||
||
||Gtr II
||  PM|            PM|              PM|
||  E S S +E   E   E S S +E   E     E S S +E   S   a E E E S +E
||--------------------------------|-------------------------------||
||o-----6-(6)-(6)~-----6-(6)-(6)~-|-----6-(6)-(6)~-6h8-6---------o||
||----7--------7~----7--------7~--|---7--------7~--------6-7-(7)--||
||--5--------------5--------------|-5-----------------------------||
||o-------------------------------|------------------------------o||
||--------------------------------|-------------------------------||


 Gtr I
  PM-----------------|
  E S E E  S +S  E E E S   +Q  +E  S  S  E S S S S +E
|------------------------|-----------------------------|
|------------------------|-------------------4---------|
|------------------------|-----------------5-----5-(5)-|
|-----3----5-(5)-3-------|---------------3-----3-------|
|---5---5----------5-4-3-|-(3)-(3)-3/(8)---------------|
|-3----------------------|-----------------------------|
|
|Gtr II
| PM|
| E S E E  S +s  E E E S    H            E S S S S +E
|------------------------|-----------------------------|
|-----6----8-(8)-6-------|-------------------4---------|
|---7---7~---------7-6-5-|-----------------5-----5-(5)-|
|-5----------------------|---------------3-----3-------|
|------------------------|-----------------------------|
|------------------------|-----------------------------|


 Gtr I
                               2/4           4/4
  E S S S S S S S S S S S E S   +Q  S S S S   +E  S S S S S  S S S S S S S S
|-----------------------------|-------------|---------------------------------|
|-----4-------6---4-----------|-------------|-------8-------10---8------------|
|---5-----5-----------5---6-7-|-(7)-7-7-8-9-|-(9)-9-----9------------8---9----|
|-3-----3---3---3---3---3-4-5-|-(5)-5-5-6-7-|-(7)-----7---7----7---7---7---7\-|
|-----------------------------|-------------|---------------------------------|
|-----------------------------|-------------|---------------------------------|



PRE-CHORUS



CHORUS



POST-CHORUS:
                    |-3-|                 |-3-|                 |-3-|
    +E  S S Q S S Q S S S   E S S Q S S Q S S S   E S S Q S S Q S S S
||----------0-----0-------|-------0-----0-------|-------0-----0-------|
||o-----------------------|---------------------|---------------------|
||------2h4---2h4---2h4p2-|---2h4---2h4---2h4p2-|---2h4---2h4---2h4p2-|
||--(2)-------------------|-0-------------------|---------------------|
||o-----------------------|---------------------|-4-------------------|
||------------------------|---------------------|---------------------|


 1., 2., 3.                 4.
  E S S S S S S E E E. S     E S S S S S S E E E S S
|-------------------------||------------------------||
|---5-5-5-5-x-x-8-8-8----o||---5-5-5-5-x-x-8-8-8---o||
|---5-5-5-5-x-x-7-7-7-----||---5-5-5-5-x-x-7-7-7-9--||
|---5-5-5-5-x-x-7-7-7--2--||---5-5-5-5-x-x-7-7-7-x--||
|-3-3-3-3-3-x-x-5-5-5----o||-3-3-3-3-3-x-x-5-5-5-7-o||
|-------------------------||------------------------||



OUTRO:
  +E   E   E   E   S E   S +E  S S   +E   E   E   S   E E   S +E  S  s
|----------------------------------|-------------10--------------------|
|------------------------------x-9-|-(9)-10--12---x--10/12--9-(9)-x-10-|
|-(9)-10--13--14--13\10--9-(9)-x-x-|------x---x---7---x-----x-----x--x-|
|------x---x---x---x-----x-----x-6-|-(6)--7---9-------7/9---6-(6)-x--7-|
|-(7)--8--11--12--11\8---7-(7)-x---|------------------------------x----|
|----------------------------------|-----------------------------------|


                                                   3/4
                                                               |-3-|
  S e e  e e e  e e S   +Q  E S S E S S E  +S   S   +E  S E E  S S S S S S
|---------------------|---------------------------|------------------------|
|---9---10-9---10-9---|-----------x-x-x-8~-(8)~---|------------------------|
|---x-9--x-x-7--x-x-6-|-(6)-6-x-x-7-x-x-7~-(7)~---|-------9--7-------------|
|---6-x--7-6-x--7-6-7-|-(7)-7-x-x-7-x-x-7~-(7)~---|-------x--x-------------|
|-----7------5------7-|-(7)-7-x-x-5-x-x-5~-(5)~---|-------7--5-----------2-|
|-------------------5-|-(5)-5-x-x---------------0-|-(0)-0------5h6p5-4-3-0-|



LYRICS:
F5
  Really easy
  You wanna know the answer
F5
  Feel me easy
  You wanna know the answer
                               D#5
  You think I've got it in my mind
                                F5
  And all the people think I'm blind


F5
  Really easy
  You wanna know the answer
F5
  Feel me easy
  You wanna know the answer
                              D#5
  You think I've got it in my mind
                              F5
  And all the people think I cannot see


G5   A5          C5            Asus a
  I hide with an unpredicted smi-  -ile
G5    A5            C5             Asus  a
  She hides and she hides a little while


D
  She don't mind
C
  She took time
           G                     Csus
  In a crime - it's just another waterline


D5 C5 G/B                       Bb5    Csus
          With your head in the clouds
D5 C5 G/B                      Bb5    Csus
          With my tears in the crowd



26th /June /05
Please mail me at Maitinin@gmail.com for comments or corrections!
Comments