Dizzy Mizz Lizzy - Take It Or Leave It Chords & Tabs

 

Take It Or Leave It Chords & Tabs

Dizzy Mizz Lizzy Chords & Tabs

Version: 2 Type: Tab 0 ratings
1 star 2 stars 3 stars 4 stars 5 stars
comments

Take It Or Leave It Tab

   
Artist: Dizzy Mizz Lizzy
Album: Rotator
Song: Take It Or Leave It

I tabbed this myself, as some of the other versions on the net wasn't all correct. This 
should be very close to perfection. Try it!

Tabbed by Aske Saxe, Denmark
Frodo_baggins15@hotmail.com

Tuning: one step down on all strings (D G C F A D)
Chords used
C	x32010
D	xx0232
G	320023
Am	x02210
Em	x22000
D7	xx0230

Intro riff
D------------------------------------------------------------------|
A---0-----0-----0---0-----0-----0---0-----0-----0---0-----0-----0--|
F-----0-----0---------0-----0---------0-----0---------0-----0------|
C-2-----2-----2---3-----3-----3---2-----2-----2---3-----3-----3----|
G------------------------------------------------------------------|
D------------------------------------------------------------------|

D------------------------------------------------0-0---------------|
A-----1-----1----------0----------0-----0------3-------------------|
F---2-----2--------2-----2-0--------0-----0------------------------|
C-4-----4--------1-----------4--2-----2-----2----------------------|
G--------------2-----2---------------------------------------------|
D------------------------------------------------------------------|

Verse riff
D--------------------------------|---------------------------------|
A-----3-----3-----3-----3--------|-----3-----3-----3-----3---------|
F---0-----0-----0-----0----------|---0-----0-----0-----0-----------|
C-2-----4-----2-----4------------|-2-----4-----2-----4-------------|
G--------------------------------|---------------------------------|
D--------------------------------|---------------------------------|

D--------------------------------|---------------------------------|
A-----3-----3-----3-----3--------|-----3-----3-----3-----3---------|
F---0-----0-----0-----0----------|---0-----0-----0-----0-----------|
C-2-----4-----2-----4------------|-2-----4-----2-----4-------------|
G--------------------------------|---------------------------------|
D--------------------------------|---------------------------------|

Intro w/ text
In your garden
I try to fall asleep
In your garden
I try to fall asleep
Try to fall asleep

Verses 1 and 2
1. Sister Mary walking on the wall
2. Sister Mary walking on the grass
D--------------------------------|---------------------------------|
A-----3-----3-----3-----3--------|-----3-----3-----3-----3---------|
F---0-----0-----0-----0----------|---0-----0-----0-----0-----------|
C-2-----4-----2-----4------------|-2-----4-----2-----4-------------|
G--------------------------------|---------------------------------|
D--------------------------------|---------------------------------|
1. Sister Mary heading for a fall
2. Sister Mary breathing on the glass
D--------------------------------|---------------------------------|
A-----3-----3-----3-----3--------|-----3-----3-----3-----3---------|
F---0-----0-----0-----0----------|---0-----0-----0-----0-----------|
C-2-----4-----2-----4------------|-2-----4-----2-----4-------------|
G--------------------------------|---------------------------------|
D--------------------------------|---------------------------------|
[ Tab from: http://www.guitartabs.cc/tabs/d/dizzy_mizz_lizzy/take_it_or_leave_it_tab_ver_2.html ]
1. Sister Mary waiting for a call
2. Sister Mary looking at the past
D--------------------------------|---------------------------------|
A-----3-----3-----3-----3--------|-----3-----3-----3-----3---------|
F---0-----0-----0-----0----------|---0-----0-----0-----0-----------|
C-2-----4-----2-----4------------|-2-----4-----2-----4-------------|
G--------------------------------|---------------------------------|
D--------------------------------|---------------------------------|

1. Sister Mary pride before a fall
2. Sister Mary you got peace at last
D--------------------------------|---------------------------------|
A-----3-----3-----3-----3--------|-----3-----3-----3-----3---------|
F---0-----0-----0-----0----------|---0-----0-----0-----0-----------|
C-2-----4-----2-----4------------|-2-----4-----2-----4-------------|
G--------------------------------|---------------------------------|
D--------------------------------|---------------------------------|

Chorus riff - rhythm follows the melody
D------------------------------------------------------------------|
A------------------------------------------------------------------|
F-12-11--9-11--9--9--7-11--9--9--12-11--9-11--9--7--5--4-----------|
C--x--x--x--x--x--x--x--x--x--x---x--x--x--x--x--x--x--x-----------|
G-10--9--7--9--7--7--5--9--7--7--10--9--7--9--7--5--3--2-----------|
D------------------------------------------------------------------|

D------------------------------------------------------------------|
A------------------------------------------------------------------|
F-12-11--9-11--9--9--7-11--9--9--9--9------------------------------|
C--x--x--x--x--x--x--x--x--x--x--x--x------------------------------|
G-10--9--7--9--7--7--5--9--7--7--7--7------------------------------|
D------------------------------------------------------------------|

D------------------------------------------------------------------|
A------------------------------------------------------------------|
F-11-12--11-11-11--9-11--12-11--8----------------------------------|
C--x--x---x--x--x--x--x---x--x--x----------------------------------|
G--9--10-/9--9--9--7--9--10--9--6----------------------------------|
D------------------------------------------------------------------|

Form
Intro riff x1

Intro w/ text
In your garden
I try to fall asleep
In your garden
I try to fall asleep
Try to fall asleep

Verse riff x1

Verse 1
Sister Mary walking on the wall
Sister Mary heading for a fall
Sister Mary waiting for a call
Sister Mary pride before a fall

Bridge
C
So many moments
D7              D            Em
All I really needed was the one
C
So many moments
D7               D
I have been mistreated
           Am
Playing's done
        D7        D    G
Pretty soon I'm gonna run

Chorus riff
Take it or leave it cause I don't care
You better believe it I'm down there
Take it or leave it cause I don't care
I come out of the blue

Take it or leave it cause I don't care
You better believe it I'm down there
Take it or leave it cause I don't care
I come out of the blue
Bringing dark days for you

Verse riff x1

Verse 2
Sister Mary walking on the grass
Sister Mary breathing on the glass
Sister Mary looking at the past
Sister Mary you've got peace at last

Bridge
C
So many moments
D7              D            Em
All I really needed was the one
C
So many moments
D7               D
I have been mistreated
           Am
Playing's done
        D7        D    G
Pretty soon I'm gonna run

Intro riff x1

Verse 3, intro riff
In your garden
I try to stay awake
In your garden
I try to stay awake
Try to stay awake

Chorus x2
Comments