Dizzy Mizz Lizzy - Take It Or Leave It Chords & Tabs

 

Take It Or Leave It Chords & Tabs

Dizzy Mizz Lizzy Chords & Tabs

Version: 1 Type: Tab 0 ratings
1 star 2 stars 3 stars 4 stars 5 stars
comments

Take It Or Leave It Tab

   
This is one of the greatest song Dizzy ever made! Too bad it never got much
attention, cuz it's GREAT! From their second album, "Rotator". It's tuned down
one whole step. I could figure out 100% what Tim plays in the chorus, but it
sounds great to me with those chords! 
Enjoy =)

Intro:
D-----------------------------------|-------------------------------------|
A----0----0----0---0----------------|----0----0----0---0------------------|
F------0----0--------0---2--0---2---|------0----0--------0---2--0---2-----|
C--2-----2----2---3----3------3-----|--2-----2----2---3----3------3-------|
G-----------------------------------|-------------------------------------|
D-----------------------------------|-------------------------------------|

D-----------------------------------|------------------------0----0-------|
A------1-------1-----------0--------|----0-----0-----3--0---------0-------|
F----2---2---2---2-----2-----2-0----|------0-----0---------0------0-------|
C--4-------4---------1---1-------4--|--2-----2-----2----------------------|
G------------------2----------------|-------------------------------------|
D-----------------------------------|-------------------------------------|

verse part 1:
  In         your       garden     I   try      to     fall   asleep   
D-----------------------------------|-------------------------------------|
A----0-----0----0---0---------------|----0-----0----0----0----------------|
F------0-----0--------0---2--0---2--|------0-----0---------0---2--0----2--|
C--2-----2-----2---3----3------3----|--2-----2-----2---3-----3-------3----|
G-----------------------------------|-------------------------------------|
D-----------------------------------|-------------------------------------|

  In         your       garden     I   try      to     fall   asleep   
D-----------------------------------|-------------------------------------|
A----0-----0----0---0---------------|----0-----0----0----0----------------|
F------0-----0--------0---2--0---2--|------0-----0---------0---2--0----2--|
C--2-----2-----2---3----3------3----|--2-----2-----2---3-----3-------3----|
G-----------------------------------|-------------------------------------|
D-----------------------------------|-------------------------------------|
   Try to fall asleep_______________________________
D-----------------------------------|--------------------------0----------|
A------1-------1-----------0--------|----0-----0-----3--0------0----------|
F----2---2---2---2-----2-----2-0----|------0-----0---------0---0----------|
C--4-------4---------1---1-------4--|--2-----2-----2-----------2----------|
G------------------2----------------|-------------------------------------|
D-----------------------------------|-------------------------------------|

verse part 2:
D-----------------------------------|-------------------------------------|
A--------3-----3-----3-----3--------|--------3-----3-----3-----3----------|
F------0-----0-----0-----0----------|------0-----0-----0-----0------------|
C----2-----4-----2-----4------------|----2-----4-----2-----4--------------|
G-----------------------------------|-------------------------------------|
D-----------------------------------|-------------------------------------|

D-----------------------------------|-------------------------------------|
A--------3-----3-----3-----3--------|--------3-----3-----3-----3----------|
F------0-----0-----0-----0----------|------0-----0-----0-----0------------|
C----2-----4-----2-----4------------|----2-----4-----2-----4--------------|
G-----------------------------------|-------------------------------------|
D-----------------------------------|-------------------------------------|

Sister Mary walking on the wall____________________________
Sister Mary walking on the grass___________________________
D-----------------------------------|-------------------------------------|
A--------3-----3-----3-----3--------|--------3-----3-----3-----3----------|
F------0-----0-----0-----0----------|------0-----0-----0-----0------------|
C----2-----4-----2-----4------------|----2-----4-----2-----4--------------|
G-----------------------------------|-------------------------------------|
D-----------------------------------|-------------------------------------|

Sister Mary heading for a fall_______________________________
Sister Mary breathing on the glass___________________________
D-----------------------------------|-------------------------------------|
A--------3-----3-----3-----3--------|--------3-----3-----3-----3----------|
F------0-----0-----0-----0----------|------0-----0-----0-----0------------|
C----2-----4-----2-----4------------|----2-----4-----2-----4--------------|
G-----------------------------------|-------------------------------------|
D-----------------------------------|-------------------------------------|
[ Tab from: http://www.guitartabs.cc/tabs/d/dizzy_mizz_lizzy/take_it_or_leave_it_tab.html ]
Sister Mary waiting for a call_______________________________
Sister Mary looking at the past______________________________
D-----------------------------------|-------------------------------------|
A--------3-----3-----3-----3--------|--------3-----3-----3-----3----------|
F------0-----0-----0-----0----------|------0-----0-----0-----0------------|
C----2-----4-----2-----4------------|----2-----4-----2-----4--------------|
G-----------------------------------|-------------------------------------|
D-----------------------------------|-------------------------------------|

Sister Mary pride before a fall______________________________
Sister Mary you've got peace at last_________________________
D--------------------------------|--------------------0-------0-----|-----|
A-----3-----3-----3-----3--------|-----3-----3-----3----------------|--0--|
F---0-----0-----0-----0----------|---0-----0---------------7--------|----0|
C-2-----4-----2-----4------------|-2-----4------5-------7-----------|-9---|
G--------------------------------|----------------------------------|-----|
D--------------------------------|----------------------------------|-----|

brigde:
C      D       D7sus4          D             Em
So many moments, all i really needed was the one
C      D       D7sus4          D7                 Am
So many moments, I have been mistreated playings done
            D7         G
Pretty soon I'm gonna run.


chorus:
Em                         D        Em
Take it or leave it, cause I don't care
Em                           C    G   
You better believe me, I'm down there
Em                         D        Em
Take it or leave it, cause I don't care
Em      C          D7
I come out of the blue.
Em                         D        Em
Take it or leave it, cause I don't care
Em                           C    G   
You better believe me, I'm down there
Em                         D        Em
Take it or leave it, cause I don't care
Em      C          D7             Am(A)        B7(B)
I come out of the blue, bringing dark days for you       ()= after 2. verse.
                                                          3. time end on Em

verse part 1:
D-----------------------------------|-------------------------------------|
A----0-----0----0---0---------------|----0-----0----0----0----------------|
F------0-----0--------0---2--0---2--|------0-----0---------0---2--0----2--|
C--2-----2-----2---3----3------3----|--2-----2-----2---3-----3-------3----|
G-----------------------------------|-------------------------------------|
D-----------------------------------|-------------------------------------|
   
D-----------------------------------|------------------------0--0---------|
A------1-------1-----------0--------|----0-----0-----3--0-------0---------|
F----2---2---2---2-----2-----2--0---|------0-----0---------0----0---------|
C--4-------4---------1---1--------4-|--2-----2-----2----------------------|
G------------------2----------------|-------------------------------------|
D-----------------------------------|-------------------------------------|

In         your       garden     I   try      to     stay     awake
D-----------------------------------|-------------------------------------|
A----0-----0----0---0---------------|----0-----0----0----0----------------|
F------0-----0--------0---2--0---2--|------0-----0---------0---2--0----2--|
C--2-----2-----2---3----3------3----|--2-----2-----2---3-----3-------3----|
G-----------------------------------|-------------------------------------|
D-----------------------------------|-------------------------------------|
In         your       garden     I   try      to     stay     awake
D-----------------------------------|-------------------------------------|
A----0-----0----0---0---------------|----0-----0----0----0----------------|
F------0-----0--------0---2--0---2--|------0-----0---------0---2--0----2--|
C--2-----2-----2---3----3------3----|--2-----2-----2---3-----3-------3----|
G-----------------------------------|-------------------------------------|
D-----------------------------------|-------------------------------------|
 Try to stay awake____________________________________
D-----------------------------------|-------------------------------------|
A------1-------1------------0-------|---4---------------------------------|
F----2---2---2---2-----2------------|-------------------------------------|
C--4-------4---------4---4----------|-------------------------------------|
G------------------2----------------|-------------------------------------|
D-----------------------------------|-------------------------------------|
To chorus again

Comments, corrections or other things, mail me: nikolaj.thorborg@skolekom.dk
Comments