Dizzy Mizz Lizzy - Silverflame Chords & Tabs

 

Silverflame Chords & Tabs

Dizzy Mizz Lizzy Chords & Tabs

Version: 2 Type: Tab 0 ratings
1 star 2 stars 3 stars 4 stars 5 stars
comments

Silverflame Tab

Intro:
|--------3---3-------------3---3-------------3---3-------------3----|
|------3---5---3---------3---5---3---------3---5---3---------3---5--|
|----5-----------5-----5-----------5-----5-----------5-----5--------|
|--------------------------------------3-----------------3----------|
|--0-----------------0----------------------------------------------|
|-------------------------------------------------------------------|

|--------3---3-------------3---3--------------1-0-1--------------0-----------|
|------3---5---3---------3---5---3----------3-------3----------0---0---------|
|----5-----------5-----5-----------5------1-----------1------5-------5-------|
|--4-----------------3------------------2------------------7-----------7-----|
|--------------------------------------------------------0--------------(0)--|
|----------------------------------------------------------------------------|

|--------3---3-------------3---3-------------3---3-------------3----|
|------3---5---3---------3---5---3---------3---5---3---------3---5--|
|----5-----------5-----5-----------5-----5-----------5-----5--------|
|--------------------------------------3-----------------3----------|
|--0-----------------0----------------------------------------------|
|-------------------------------------------------------------------|

|--------3---3-------------3---3--------------1-0-1------------1-0--|
|------3---5---3---------3---5---3----------3-------3--------3------|
|----5-----------5-----5-----------5------1-----------1----1--------|
|--4-----------------3------------------2----------------2----------|
|-------------------------------------------------------------------|
|-------------------------------------------------------------------|

Sorrow hides under the water
Sorrow is my only friend
Sorrow stands beside the doorway
Sorrow lends a helping hand
[ Tab from: http://www.guitartabs.cc/tabs/d/dizzy_mizz_lizzy/silverflame_tab_ver_2.html ]
Vers:
|---------------------------------------------|
|---------------------------------------------|
|------0---------0-----------0----------------|
|----2---2-----3---3-----0h2---2---------0----|
|--0-------------------3-------------0h2---2--|
|-----------1----------------------3----------|

Girl in a glassbox dressed in white
Happy enough to commit suicide
She said silvers meant to burn forever

Sleeping forever in a bubble of blue
Say would you like to see her point view
She said silvers meant to burn forever

Bridge:

|-----------------------------------------------------|
|-----------------------------------------------------|
|------4-------5-------5-------5-------5---4---0---2--|
|----2---2---3---3---4---4---3---3---2---2---2---2----|
|--0-------0-------0-------0-------0------------------|
|-----------------------------------------------------|
FOREVER

Chorus:
|--------3-------1-------0----------3-------1-------0--|
|----0h1-----0h1-----0h1--------0h1-----0h1-----0h1----|
|--2-------2-------2----------2-------2-------2--------|
|------------------------------------------------------|
|------------------------------------------------------|
|------------------------------------------------------|

|--------3-------1-------0---------3-------1-------0--||-------------|
|----0h1-----0h1-----0h1-------0h1-----0h1-----0h1----||--?-?-?-?-?--|
|-----------------------------------------------------||--?-?-?-?-?--|
|--3-------3-------3---------3-------3-------3--------||--?-?-?-?-?--|
|-----------------------------------------------------||-------------|
|-----------------------------------------------------||-------------|

Say my name silverflame and take control
of my heart of my mind and of my soul
what a shame silverflame
that you can't burn forever

Get the picture?

Email me if anythings wrong

FrederiksenAngo@hotmail.com
Comments