Dizzy Mizz Lizzy - Love Is A Losers Game Chords & Tabs

 

Love Is A Losers Game Chords & Tabs

Dizzy Mizz Lizzy Chords & Tabs

Version: 2 Type: Tab 0 ratings
1 star 2 stars 3 stars 4 stars 5 stars
comments

Love Is A Losers Game Tab

   
    _________________________
   / Dizzy Mizz Lizzy       / Oh, this good old song. I think it's about this
  / Love Is A Loser's Game /  poor fellow whose girlfriend accidentally dies,
 / Dizzy Mizz Lizzy       /   and what misrepresented idea of love that
/________________________/    unfortunately remains in his mind.



How to play the signature riff:
It takes quite some skills and practice to play - just to warn the beginners!
 In the first position, use your thumb the play the bottom notes and
keep your ring finger on the fifth fret on the g-string. Then use your three
other fingers to play the melody notes.
 In the second position, use your ring finger to play the bottom note, place
your little finger on the sixth fret on the h-string and finally do a bar at the
g-, h- and e-string on the third fret with the front of your index finger.



Gtr 1 (D G C F A D) - Steel String, clean
Gtr 2 (D G C F A D) - Electric, Dizzy-overdrive


Intro:
 Gtr 1
  4/4
    E   S S S S S S E   S a E   S E     E   S S S S S S E   S a E   E   S
||------------------------------------|-----------------------------------|
||o-------6---4---3-------3h4---3-----|-------6---4---3-------3h4---3-----|
||------5---5---5-------5---------5---|-----5---5---5-------5-----------5-|
||------------------------------------|-----------------------------------|
||o-----------------------------------|-----------------------------------|
||--4---------------5-----------------|-4---------------5-----------------|
 |-Rhy Fig 1 (signature riff)


  E   S S S S S S E   S a E   S S S   +E   S S E.    S +H                2x
|-----------------------------------|--------3---------------------------||
|-------6---4---3-------3h4---3-----|----------------6-(6)--------------o||
|-----5---5---5-------5---------5---|------3---3-------------------------||
|-----------------------------------|------------------------------------||
|-----------------------------------|-----------------------------------o||
|-4---------------5---------------6-|-(6)--------------------------------||
                                                           end Rhy Fig 1-|



Verse:
Rhy Fig 1 x2, then:

 Gtr 2
  H.                       Q
|-----------------------------------|
|-----------------------------------|
|-----------------------------------|
|-----------------------------------|
|-----------------------------------|
|-7-----------------------15\-------|




Chorus:
 Gtr 1, 2
  PM------------------------------------------------------------|
  E   E   E   E   E   E   E   E     E   E   E   E   E   E   E   E
|---------------------------------|---------------------------------|
|---------------------------------|---------------------------------|
|---------------------------------|---------------------------------|
|-5---5---5---5---6---6---6---6---|-6---6---6---6---6---6---6---6---|
|-3---3---3---3---3---3---3---3---|-4---4---4---4---4---4---4---4---|
|---------------------------------|---------------------------------|
|-Rhy Fig 2


 Gtr 1
  PM------------------------------------------------------------|
  E   E   E   E   E   E   E   E     E   E   E   E   E   E   E   E
|---------------------------------|---------------------------------|
|---------------------------------|---------------------------------|
|-----------------4---4---4---4---|-5---5---5---5---5---7---8---5---|
|-6---6---6---6---5---5---5---5---|-6---6---6---6---6---6---6---6---|
|-5---5---5---5-------------------|---------------------------------|
|---------------------------------|---------------------------------|
|
|Gtr 2
| E   E   E   E   E   E   E   E     E   E   E   E   E   E   E   E
|---------------------------------|---------------------------------|
|---------------------------------|---------------------------------|
|-----------------4-------4-------|-5-------5-------5---7---8---5---|
|-6---6---6---6-------5-------5---|-----6-------6-------------------|
|-5---5---5---5-------------------|---------------------------------|
|---------------------------------|---------------------------------|


 Gtr 1
  PM--------------------------------------------------------|
  E   E   E   E   E   E   E   E     E   E   E   E   E   E   E   E
|---------------------------------|---------------------------------|
|---------------------------------|---------------------------------|
|-7---7---7---7---7---7---7---7---|-5---5---5---5---4---4---4---5---|
|-6---6---6---6---6---6---6---6---|-5---5---5---5---5---5---5---5---|
|---------------------------------|-----------------------------3---|
|---------------------------------|---------------------------------|
|                                                     end Rhy Fig 2-|
|
|Gtr 2
| E   E   E   E   E   E   E   E     E   E   E   E   E   E   E   E
|---------------------------------|---------------------------------|
|---------------------------------|---------------------------------|
|-7-------7-------7-------7-------|-5-------5-------4-------4---5---|
|-----6-------6-------6-------6---|-----5-------5-------5-------5---|
|---------------------------------|-----------------------------3---|
|---------------------------------|---------------------------------|
                                                      end Rhy Fig 2-|


 Gtr 1, 2
  +E   E   E   Q       E   E   E    +W
|------------------------------5--|-(5)-----------------------------|
|------------------------------x--|---------------------------------|
|-(5)--5-------3-------3-------2--|-(2)-----------------------------|
|-(5)--5-------3-------3-------x--|---------------------------------|
|-(3)--3-------1-------1-------0--|-(0)-----------------------------|
|---------------------------------|---------------------------------|


  |-----3-----|
  Q     Q     Q     a Q.          E
|-------------------------------------|
|-------------------------------------|
|-------------------------------------|
|-6-----5-----3-----1h3-----------1---|
|-------------------------------------|
|-------------------------------------|




Interlude:
Rhy Fig 1



Verse (as first verse)




Chorus (as first chorus)



[ Tab from: http://www.guitartabs.cc/tabs/d/dizzy_mizz_lizzy/love_is_a_losers_game_tab_ver_2.html ]
Interlude:
 Gtr 1
  E   S S S S S S E   S a E   S S S   +E   S S E.    S +H
|-----------------------------------|--------3--------------------------|
|-------6---4---3-------3h4---3-----|----------------6-(6)--------------|
|-----5---5---5-------5---------5---|------3---3------------------------|
|-----------------------------------|-----------------------------------|
|-----------------------------------|-----------------------------------|
|-4---------------5---------------6-|-(6)-------------------------------|




Solo (solo-backup: Gtr 1's chorus part):

(don't worry, you're not suppose to play all this at once, but
you can for instance play the solo with the upper octave alone,
play two simultaneously, or make two guitars play an octave each)

   E    Q        Q        q        E      +W
|-15---12----------------15-------13---|-(13)------------------------------|
|---------------13---------------------|-----------------------------------|
|-12----9----------------12-------10---|-(10)------------------------------|
|---------------10---------------------|-----------------------------------|
|-10----7----------------10--------8---|--(8)------------------------------|
|----------------8---------------------|-----------------------------------|


   E    E    E    Q          Q           S  S    H            E    E    E    E
|-13---15---16---15---------13----------11h13-|-11----------------10---11------|
|---------------------------------------------|--------------13-------------13-|
|-10---12---13---12---------10-----------8h10-|--8-----------------7----8------|
|---------------------------------------------|--------------10-------------10-|
|--8---10---11---10----------8-----------6h=8-|--6-----------------5----6------|
|---------------------------------------------|---------------8--------------8-|


                                                         |------3------|
   H                  E    E    E.     S    +H           Q      Q      Q
|------------------------------13--------|----------------------------13-----|
|-15-----------------15---16----------16-|-(16)---------15-----16------------|
|------------------------------10--------|----------------------------10-----|
|-12-----------------12---13----------13-|-(13)---------12-----13------------|
|-------------------------------8--------|-----------------------------8-----|
|-10-----------------10---11----------11-|-(11)---------10-----11------------|


   E..      E..     E..     E..     E      +W
|-15-------13--------------13-----------|---------------------------------|
|------------------16--------------13---|-(13)----------------------------|
|-12-------10--------------10-----------|---------------------------------|
|------------------13--------------10---|-(10)----------------------------|
|-10--------8---------------8-----------|---------------------------------|
|------------------11---------------8---|--(8)----------------------------|


   A  E..      E..     E..      A  E..      E
|-15h16-------15------13-------11h13-------11---|
|-----------------------------------------------|
|-12h13-------12------10--------8h10--------8---|
|-----------------------------------------------|
|-10h11-------10-------8--------6h=8--------6---|
|-----------------------------------------------|




Post Solo Fill:
 Gtr 1, 2
                                         |--3--|
  H..                      S S   S S E   E  E  E   Q         Q
|-0------------------------0-1-|-0------------------------------------|
|-1----------------------------|---1--------0--3---4~-----------------|
|-0----------------------------|-----0---0----------------------------|
|------------------------------|-----------------------------x\-------|
|------------------------------|-----------------------------x\-------|
|------------------------------|-----------------------------x\-------|




Chorus:
Rhy Fig 2, then:

 Gtr 1, 2
                                                                PM|
  +E   E   E   Q       E   E   E    +H              Q       E   S S
|------------------------------5--|-(5)-------------5-------5-------|
|------------------------------x--|-----------------x-------x-------|
|-(5)--5-------3-------3-------2--|-(2)-------------2-------2-------|
|-(5)--5-------3-------3-------x--|-----------------x-------x-------|
|-(3)--3-------1-------1-------0--|-(0)-------------0-------0---0-0-|
|---------------------------------|---------------------------------|


  |-----3-----|
  Q     Q     Q     a Q.          E
|-------------------------------------|
|-------------------------------------|
|-------------------------------------|
|-6-----5-----3-----1h3-----------1---|
|-------------------------------------|
|-------------------------------------|




Chorus (as first chorus)




Outro:
 Gtr 1
  E   S S S S S S E   S a E   S E     E   S S S S S S E   S a E   E   S
|-----------------------------------|-----------------------------------|
|-------6---4---3-------3h4---3-----|-------6---4---3-------3h4---3-----|
|-----5---5---5-------5---------5---|-----5---5---5-------5-----------5-|
|-----------------------------------|-----------------------------------|
|-----------------------------------|-----------------------------------|
|-4---------------5-----------------|-4---------------5-----------------|
|
|Gtr 2
| H               H                   H               H
|-----------------------------------|-----------------------------------|
|-----------------------------------|-----------------------------------|
|-----------------------------------|-----------------------------------|
|-----------------------------------|-----------------------------------|
|-----------------------------------|-----------------------------------|
|-4---------------5-----------------|-4---------------5-----------------|


  E   S S S S S S E   S a E   S S S   +E   S S E.    S +H
|-----------------------------------|--------3--------------------------|
|-------6---4---3-------3h4---3-----|----------------6-(6)--------------|
|-----5---5---5-------5---------5---|------3---3------------------------|
|-----------------------------------|-----------------------------------|
|-----------------------------------|-----------------------------------|
|-4---------------5---------------6-|-(6)-------------------------------|
|
| H               Q..             S   +W
|-----------------------------------|-----------------------------------|
|-----------------------------------|-----------------------------------|
|-----------------------------------|-----------------------------------|
|-----------------------------------|-----------------------------------|
|-----------------------------------|-----------------------------------|
|-4---------------5---------------6-|-(6)-------------------------------|

- 27th /August /05
I'd love comments and corrections at Maitinin@gmail.com
Comments