Dizzy Mizz Lizzy - Love Is A Losers Game Chords & Tabs

 

Love Is A Losers Game Chords & Tabs

Dizzy Mizz Lizzy Chords & Tabs

Version: 1 Type: Tab 0 ratings
1 star 2 stars 3 stars 4 stars 5 stars
comments

Love Is A Losers Game Tab

   
Artist: Dizzy Mizz Lizzy
Album: Dizzy Mizz Lizzy
Song: Love Is A Loser's Game

Tabbed by Aske Saxe, Denmark
Frodo_baggins15@hotmail.com

Tuning:  tone down (Eb Ab Db Gb Bb Eb)

Main riff
E-----0-----------------------|-----0------------------------|
H---------3---2------2h3p-2---|---------3---2-------2h3p-2---|
G---4---4---4------4----------|---4---4---4-------4--------4-|
D-----------------------------|------------------------------|
A-----------------------------|------------------------------|
E-3-------------4-------------|-3--------------4-------------|

E-----0-----------------------|---2-0---(0-0-3-2)------------|
H---------3---2------2h3p-2---|-3----------------------------|
G---4---4---4------4----------|------------------------------|
D-----------------------------|------------------------------|
A-----------------------------|------------------------------|
E-3--------------4------------|------------------------------|

Chorus riff, palm mute
E-----------------------------|------------------------------|
H-----------------------------|------------------------------|
G-----------------------------|-3333-4444-4676-6666-6666-4444|
D-4444-5555-5555-5555-5555----|-4444-5555-5555-5555-5555-4444|
A-2222-2222-3333-3333-4444----|------------------------------|
E-----------------------------|------------------------------|
[ Tab from: http://www.guitartabs.cc/tabs/d/dizzy_mizz_lizzy/love_is_a_losers_game_tab.html ]
E-----------------------------|------------------------------|
H-----------------------------|------------------------------|
G-3333-------2222-------------|------------------------------|
D-4444--4444-2222-5555--------|-2/5-4-2-2-0------------------|
A-------2222-0000-5555--------|------------------------------|
E-----------------3333--------|------------------------------|

Riff after bass solo, barre on 4th fret
E-----------------------------|------------------------------|
H-4-5-4-----------2-3---------|------------------------------|
G-------4-------3-------------|------------------------------|
D---------4---4---------------|------------------------------|
A-----------------------------|------------------------------|
E-----------------------------|------------------------------|

Intro, main riff x2

Verse 1, main riff
I saw your face in the 
Paper that I bought today
I heard our song on the radio

I know you're not a part of
This wicked world anymore
But life goes on for me and I don't care
If you're standing there

Chorus
She don't mind the pain
Love is a loser's game
Time is on my side
You've got nothing to hide
Love is a loser's game my friend
'Till the very end

Main riff x1

Verse 2, main riff
I don't remember nothing
After all we've been going through
But life goes on for me and I don't care

I saw your face in the
Paper that I bought today
I heard our song on the radio
On a rainy day show

Chorus
She don't mind the pain
Love is a loser's game
Time is on my side
You've got nothing to hide
Love is a loser's game my friend
'Till the very end

Partial main riff

Bass-solo - guitar plays chorus riff VERY palm muted
Riff after bass-solo

Chorus
She don't mind the pain
Love is a loser's game
Time is on my side
You've got nothing to hide
Love is a loser's game my friend
'Till the very end my friend

Chorus
From: "Love is a loser's game"
Time is on my side
You've got nothing to hide
Love is a loser's game my friend
'Till the very end

Outro, main riff x1
Comments