Dizzy Mizz Lizzy - Glory Chords & Tabs

 

Glory Chords & Tabs

Dizzy Mizz Lizzy Chords & Tabs

Version: 4 Type: Tab 0 ratings
1 star 2 stars 3 stars 4 stars 5 stars
comments

Glory Tab

I found it out myself after many hours :D

This is my first subscribed tab so mail me what you think :D

02:27
e------------------------------------------------------------|
B------------------------------------------------------------|
G-------6---------8^-8---8p6---------------------------------|
D--8----------------------------8/---------------------------|
A----------------------------------------6--4--6--4----------|
E------------------------------------------------------------|
[ Tab from: http://www.guitartabs.cc/tabs/d/dizzy_mizz_lizzy/glory_tab_ver_4.html ]
02:34
e---------------------------------------------------------------------------|
B---------------------------------------6---9-------------------6--7--------|
G-------6---------8p^------------6---8^-------8^--6------6--8^-------8^--8--|
D--8------------------------8-------------------------8---------------------|
A---------------------------------------------------------------------------|
E---------------------------------------------------------------------------|

02:41
e------------------------------------------------------|
B------------------------------------------------------|
G--6--10--8--10--6--10--5--10-----10--8--10--6--10--5--|
D------------------------------8-----------------------|
A------------------------------------------------------|
E------------------------------------------------------|

02:44
e--------------------------------------------------------------------------|
B--------------------------------------------------------------------------|
G-----11--10--11--8--11--6--11--5-5--6--8--8^8--6--------6^6------8^--6----|
D--8-----------------------------------------------8--6-------6-6--------8-|
A--------------------------------------------------------------------------|
E--------------------------------------------------------------------------|

And then i don't know the end of the solo.. Just mix something up :D

                                                                    -Stabby
Comments