Dizzy Mizz Lizzy - 1107 Pm Chords & Tabs

 

1107 Pm Chords & Tabs

Dizzy Mizz Lizzy Chords & Tabs

Version: 1 Type: Tab 0 ratings
1 star 2 stars 3 stars 4 stars 5 stars
comments

1107 Pm Tab

   
^ = Downstroke   p = Pull off
v = Upstroke     h = Hammer On

Intro:
e|----------------------------------------------------------|
h|0--0--0---0---3-0--0--0---0---3---------------3---------3-|
G|0--0----2---2---0--0----2---2---2--2--2-0-2-0---2--2-0----|
D|2--2------------2--2------------0--0------------0---------|
A|3--3------------3--3------------0--0------------0---------|
E|--------------------------------3--3------------3---------|

Vers:
e|----------------------------------------------------------|
h|0--0--0---0---3-0--0--0---0---3---------------3---------3-|
G|0--0----2---2---0--0----2---2---2--2--2-0-2-0---2--2-0----|
D|2--2------------2--2------------0--0------------0---------|
A|3--3------------3--3------------0--0------------0---------|
E|--------------------------------3--3------------3---------|

e|----------------------------------------------------------|
h|0--0--0---0---3-0--0--0---0---3---------------3---------3-|
G|0--0----2---2---0--0----2---2---2--2--2-0-2-0---2--2-0----|
D|2--2------------2--2------------0--0------------0---------|
A|3--3------------3--3------------0--0------------0---------|
E|--------------------------------3--3------------3---------|

Here in the bridge it's very important that you do the up- and downstroke right
Bridge:
  ^ ^ ^ ^ ^ ^ ^v^  v ^ v^
e|3-3-3-3-3-3-343--2-2-32-----------------------------------|
h|3-3-3-3-3-3-333--2-2-22-----------------------------------|
G|5-5-5-5-5-5-555--4-4-44-----------------------------------|
D|----------------------------------------------------------|
A|----------------------------------------------------------|
E|----------------------------------------------------------|
[ Tab from: http://www.guitartabs.cc/tabs/d/dizzy_mizz_lizzy/1107_pm_tab.html ]
                   a7                                                   a7
Chorus:           sus                                                   sus
  c    g      d    4  a7 c      d      e                c    g      d    4 a7
e|3--3-3--3-3-5--5-5--5--3--3-3-5--5-5-7------7------7--3--3-3--3-3-5--5-5--5-|
h|5--5-3--3-3-7--7-5--5--5--5-5-7--7-7-9------9------9--5--5-3--3-3-7--7-5--5-|
G|5--5-4--4-4-7--7-7--6--5--5-5-7--7-7-9------9------9--5--5-4--4-4-7--7-7--6-|
D|5--5-5--5-5-7--7-5--5--5--5-5-7--7-7-9------9------9--5--5-5--5-5-7--7-5--5-|
A|3--3-5--5-5-5--5-7--7--3--3-3-5--5-5-7------7------7--3--3-5--5-5-5--5-7--7-|
E|-----3--3-3------5--5-------------------0-0----0-0---------3--3-3------5--5-|
    c    d     a7               am7  bm7      e
e|--3--3-5--5-5-5------5------5--5--5-7--7-7--0--|
h|--5--5-7--7-7-5------5------5--5--5-7--7-7--0--|
G|--5--5-7--7-7-6------6------6--5--5-7--7-7--1--|
D|--5--5-7--7-7-5------5------5--5--5-7--7-7--2--|
A|--3--3-5--5-5-7------7------7--7--7-9--9-9--2--|
E|--------------5--5-5-5--5-5-5--5--5-7--7-7--0--|

Bridge to Solo & Solo:
e|3--3--5h7p5--2--2--3-2---2-----2---------------------------------------|
h|3--3--5----5-2--2--------------------2---REPEAT-3-TIMES-Afterwards-----|
G|5--5--7------4--4------4---4-4---4-4---4----------------1-bridge-and---|
D|--------------------------------------------------------then-the-solo--|
A|-----------------------------------------------------------------------|
E|-----------------------------------------------------------------------|

(w. Dis. & Chorus)
e|------------------------------------------------------------------------|
h|5--7-8-8--7-5----5-7-7-5--5--7-8-7-5---5----5--7-8-8--7-5----5-7-7-5----|
G|--------------7----------------------7--------------------7-------------|
D|------------------------------------------------------------------------|
A|------------------------------------------------------------------------|
E|------------------------------------------------------------------------|

e|--------------------------------------------------------------|
h|5--7-8-7--5---5----5--7-8-8--7-5----5-7-7-5----5--7-8-7--5---5|
G|------------7--------------------7-------------------------7--|
D|--------------------------------------------------------------|
A|--------------------------------------------------------------|
E|--------------------------------------------------------------|

Outro:
e|3--3--5h7p5--2--2--3-2-----------------------|
h|3--3--5------2--2-------0--0--0---0---3------|
G|5--5--7------4--4-------0--0----2---2---2----|
D|------------------------2--2------------0----|
A|------------------------3--3------------0----|
E|----------------------------------------3----|

Structure:
Intro
Vers
Bridge
Vers
Bridge
Chorus
Vers
Bridge
Chorus
Bridge To Solo & Solo
Chorus
Outro
Comments