Dixie Dregs - Cruise Control Chords & Tabs

 

Cruise Control Chords & Tabs

Dixie Dregs Chords & Tabs

Version: 1 Type: Tab 0 ratings
1 star 2 stars 3 stars 4 stars 5 stars
comments

Cruise Control Tab

#----------------------------------PLEASE NOTE---------------------------------#
#This file is the author's own work and represents their interpretation of the #
#song. You may only use this file for private study, scholarship, or research. #
#------------------------------------------------------------------------------#

CRUISE CONTROL - The Dixie Dregs
As heard on the album 'Divided We Stand'
Transcribed by Heath Barratt

godsize1@cobweb.com.au
My Dregs And Steve Morse Site is at
http://www.geocities.com/sunsetstrip/towers/1885/morse.htm


E|-3-----|---------|-------|-------|-------|-------------|------------------|---
B|-1-----|-3-------|-6--6--|-3-----|-------|-3----3------|-----------6--6---|-3-
G|-0-----|-3h4-----|-7--5--|-3h4---|-------|-3h4--3h4----|-----------7--5---|-3h
D|-3-----|-3-------|-8--7--|-3-----|-------|-3----3----5-|-----------8--7---|-3-
A|-------|---------|-------|-------|-------|-------------|------------------|---
E|-1-----|---------|-------|-------|-------|-------------|------------------|---





E|----|-----------------|-------|---------|--------|-----------|----------------
B|----|-----------------|-3-----|-6---6---|-3------|-3---3-----|------6--6----3-
G|-4--|-----------------|-3h4---|-7---5---|-3h4----|-3h4-3h4---|------7--5----3h
D|----|---------5-5-5-5-|-3-----|-8---7---|-3------|-3---3---5-|------8--7----3-
A|----|--/5-2---4-3-1-2-|-------|---------|--------|-----------|----------------
E|----|-------3---------|-------|---------|--------|-----------|----------------





E|----|-----------------------|------8--r-6---6h--7-|------|--------------8b10-
B|----|-----------------------|-3-----------8-------|-6--6-|-3-----------------
G|-4--|-3-0-------------------|-3h4-----------------|-7--5-|-3h4---------------
D|----|---------3-3-----3-1---|-3-------------------|-8--7-|-3-----------------
A|----|-----------------------|---------------------|------|-------------------
E|----|-----3-3-----3-3-----3-|---------------------|------|-------------------





E|--r-7-8-7-8b10---r-7----|-----------13b15--r-----------|-------------|-------
B|------------------------|-3----3----------------11b13--|-6--6---3----|-------
G|---------------------7~-|-3h4--3h4-----------12--------|-7--5---3h4--|-------
D|------------------------|-3----3-----------------------|-8--7---3----|-------
A|------------------------|------------------------------|-------------|-------
E|------------------------|------------------------------|-------------|-------





E|---------------------------------|------15-----------------------|-----------
B|-------3-------------------------|-3--------------------------15-|-6--6--3---
G|---------6-5-4-3-----------------|-3h4-----12-12-12-12-14b16-----|-7--5--3h4-
D|-------------------------5-5-5-5-|-3-----------------------------|-8--7--3---
A|------------------/5-2---4-3-1-2-|-------------------------------|-----------
E|-----------------------3---------|-------------------------------|-----------





E-|---------------------------|-------------------|-----------18b20---18~------
B-|---------------------------|-------------------|-3----3----------------6--6-
G-|----------------7-7-7-7-7--|-7-7-7-7-7---7b9---|-3h4--3h4--------------7--5-
D-|---------------------------|-------------------|-3----3----------------8--7-
A-|---------------------------|-------------------|----------------------------
E-|---------------------------|-------------------|----------------------------





E-|--------|--------------------------------|----------|---------|-6-------------
B-|-3------|--------------------------------|-6----8---|--9--11--|-6-8-6------11-
G-|-3h4----|----------3-0-------------------|-6h7--8---|--8---8--|---8-6h--7--10-
D-|-3------|------------------3-3-----------|-6----8---|-10---8--|-----6------12-
A-|--------|--------------------------3-1---|----------|--8--10--|------------10-
E-|--------|--------------3-3-----3-3-----3-|----------|---------|---------------





E|-----10-------|---------------------------|-6--------------|----10---|-12--|-
B|--13-11---11--|-----------6----8---9--11--|-6-8-6-------11-|-13-12---|-14--|-
G|--10-10---10--|-----------6h7--8---8---8--|---8-6h--7---10-|-10-12---|-14--|-
D|--10-10---13--|-----------6----8--10---8--|-----6-------12-|-10-10---|-12--|-
A|--12------10--|--------------------8--10--|-------------10-|-12------|-----|-
E|--------------|---------------------------|----------------|---------|-----|-





E|-18-17-15----------------------------------------------15-10-11-12-------------
B|----------19-16-15-------------------------------------------------11-12-------
G|-------------------17-15----------------------------------------------------15-
D|-------------------------19-17-16----------------------------------------12----
A|----------------------------------18-17-15-------------------------------------
E|-------------------------------------------18-17-------------------------------




[ Tab from: http://www.guitartabs.cc/tabs/d/dixie_dregs/cruise_control_tab.html ]
E|----------|-------3-5-6-5-3-------|-----------------------------------------|-
B|----------|-3-4-5-----------5-3---|-----------------------------------------|-
G|-14----12-|-----------------------|-----------------------------------------|-
D|----14----|---------------------5-|-----------------------------------------|-
A|----------|-----------------------|-------------------------3---------0-1-2-|-
E|----------|-----------------------|---------------------------0-1-2-3-------|-





E|-------------------|-----------------|-----------------|---------------------
B|-------------------|-----------------|-----------------|---------------------
G|-------------------|-----------------|-----------------|---------------------
D|-------------------|-----------------|-------------1-2-|---------------------
A|-3-----------0-1-2-|-3---------0-1-2-|-3---------3-----|-----------3---------
E|---0-1--2--3-------|---0-1-2-3-------|---0-1-2-3-------|-------------0-1-2-3-





E|-------|-------------------|-------------------|-----------------------------
B|-------|-------------------|-------------------|-----------------------------
G|-------|-------------------|-------------------|-----------------------------
D|-------|-------------------|-------------------|-------------------0-1-2-3-4-
A|-0-1-2-|-3-----------0-1-2-|-3-----------0-1-2-|-3---------0-1-2-3-----------
E|-------|---0-1--2--3-------|---0-1--2--3-------|---0-1-2-3-------------------





E|-----|----------|---------|----------|-------------|---------|---------------
B|-----|-5--------|-7--5----|-5--------|-7--5----5---|---------|----------5--6-
G|-0-1-|-5h6------|-7--5h6--|-5h6------|-7--5h6--5h6-|---------|----------6--7-
D|-----|-5--------|-7--5----|-5--------|-7--5----5---|---------|----------5--6-
A|-----|----------|---------|----------|-------------|---------|---------------
E|-----|----------|---------|----------|-------------|---------|----------5--6-



       2nd time

E|-----||----------------|--------|---------------------------------------------
B|--7-*||-5--6--7--8---9-|-10-----|---------------------------------------------
G|--8--||-6--7--8--9--10-|-11-----|---------------------------12b14-------12----
D|--7--||-5--6--7--8---9-|-10-----|---------------------------------------------
A|----*||----------------|--------|---------------------------------------------
E|--7--||-5--6--7--8---9-|-10-----|---------------------------------10-10----10-





E|-----------------------|-------------------------------------------|---------
B|-----------------------|-------------------------------------------|---------
G|----10--10-------------|-------------------------------------------|---------
D|-----------------------|-10b11--------------12~--------------------|-------3-
A|-----------------------|-------------------------------------------|-3-4-5---
E|-10--------10-10-10-10-|--------10-10-10-10-----10--10-10-10-10-10-|---------





E|-------------------|--------------------|---------------------------------|---
B|-------------------|--------------------|---------------------------------|---
G|-------------------|--------------------|-----------------------------2---|---
D|-4-5-6-5-4-3-------|--------------------|-0-0-0-0-3-0-0-0-5-0-0-0-6-0---0-|-0-
A|-------------5-3---|----------------3-4-|---------------------------------|---
E|-----------------1~|----------3-4-5-----|---------------------------------|---





E|--------------------------|------------------------------10-11-13b15--|------
B|--------------------------|-------------------8-10-11-13--------------|------
G|---4-------5----------5b7-|------------7-9-10-------------------------|------
D|-0---0-0-0---0-0--0-0-----|-------7-10--------------------------------|------
A|--------------------------|-------------------------------------------|------
E|--------------------------|-------------------------------------------|------





E|-----|--------------|------------------------------------|---------------------
B|-----|--------------|------------------------------------|---------------------
G|-----|-9b10~----7---|-----------------7-----9b10--r-b1-r-|--12b14-------12-----
D|-----|------------9-|------------------------------------|---------------------
A|-----|--------------|------------------------------------|---------------------
E|-----|--------------|------------------------------------|--------10-10-----10-





E|--------------------|---------------|---------------------------|------------
B|--------------------|---------------|------------------10~------|-----8------
G|----10b11-----------|---------------|---------------------------|---7---10~--
D|-----------12-10----|-10------------|---------------------------|-9----------
A|--------------------|----12-10-8----|---------------------------|------------
E|-10--------------10-|------------10~|---------------------------|------------





E|----|----------------------------12-13-14-15-13-|-------------------------16-
B|----|-------------------12-13-15----------------|----------------16-17-18----
G|----|----------12-13-15-------------------------|----------------------------
D|----|-12-14-16----------------------------------|----------------------------
A|----|-------------------------------------------|----------------------------
E|----|-------------------------------------------|----------------------------





E|----------------17----------------18-|-20b22-----20b21---b2--|-
B|-18-17-17-18-19----19-18-18-19-20----|-----------------------|-
G|-------------------------------------|-----------------------|-
D|-------------------------------------|-----------------------|-
A|-------------------------------------|-----------------------|-
E|-------------------------------------|-----------------------|-

Comments